Войти
Навигация

Мини-чат
Написалzhelinscky
23 октября 2016
привет всем заходите на портал гитаристов akkordmovi.com
Написалzhelinscky
23 октября 2016
всем привет заходите на новый портал гитаристов [leech=http://akkordmovi.com]akko
rdmovi.com[/leech]
НаписалВексель
7 августа 2016
Всем привет
НаписалAragorn
4 апреля 2016
привет
НаписалVurf
1 марта 2016
шалом, бездельники!)
НаписалHohner
8 февраля 2016
https://www.youtube.com/watch?v=9
wG5oHsYkvA
НаписалHohner
8 февраля 2016
smile-03
Написалslaveckii77
24 января 2016
slaveckii77, Я тут))))
Написалslaveckii77
24 января 2016
Где все ??? ЭЭЭ народ?
Написалslaveckii77
24 января 2016
Где все ??? ЭЭЭ народ?

Только зарегистрированные пользователи могут отправлять сообщения.

Наша группа

0-9  A-Z  А  Б  В  Г  Д  Е  Ж  З  И  К  Л  М  Н  О  П  Р  С  Т  У  Ф  Х  Ц  Ч  Ш  Щ  Ю  Я 

Аккорды к песне 7Б - Убегаем, догоняют (Прости, мама)

Просмотров: 1677, Комментариев: 0
 (голосов: 0)




Транспонировать:
вступление :
E |--------------------------------|
B |--------------------------------|
G |---5---5—7—8—5-----5---5-—7—8—5-|
D |-5---5---------------5---5------|
A |--------------------------------|
E |--------------------------------|

E |----------------------------------|
B |----------------------------------|
G |----5---5—7—8—5-----5---5—--7—8—5-|
D |-6----6-----------6---6-----------|
A |----------------------------------|
E |----------------------------------|

E |----------------------------------------|
B |-----------6--4--3--------------6--4--3-|
G |---3---3—-—-—---------3---3—--—-—-------|
D |-3---3--------------3---3---------------|
A |----------------------------------------|
E |----------------------------------------|

E |----------------------------------------|
B |----------------------------------------|
G |---5---5—7—8—5-----5---5—--7—8—5------5-|
D |-5---5-----------5---5-------------5----|
A |----------------------------------------|
E |----------------------------------------|

А вот что играется в куплете:
E |---------------------------------|
B |---------------------------------|
G |---5---------5---5—7—8—5-------5-|
D |-5---------5---5-------------6---|
A |---------------------------------|
E |---------------------------------|

E |-----------------------------------------|
B |---------------------------------6--4--3-|
G |---5---5—7—8—5-----3------3---3—--—------|
D |-6---6-----------3------3---3------------|
A |-----------------------------------------|
E |-----------------------------------------|

E |--------------------------------|
B |--------------------------------|
G |---5---5—7—8—5------5---5—7—8—5-|
D |-5---5------------5---5---------|
A |--------------------------------|
E |--------------------------------|

В аккордах:
Cm
Пиная кирпич иду, не чувствуя боль, и вдруг
Cmadd13 -
Друг на пути, мы из дома ушли
Bb
За свободой из книг, за героями, в роль и скин

Cm
Дым на небе лежит, значит мы будем жить
Cmadd13 -
Зимой не замёрзнем, от костра убежим,
Bb
За любовью с витрин, за дорогой в полях без мин

Предприпев:
Cmadd13 - Bb Cm
Этот город рухнет на нас стеной и мы прорвёмся
Cmadd13 - Bb Cm
Это море вынесет нас в аллой и мы вернёмся

Припев:
Cmadd13 - Bb Cm
Убегаем, догоняют, прости , мама x2

В забытые времена бродягой была земля
С неба как дом родной, а звёзды как сёстры в нём
Смотрели на нас с картин, в глазах их читался сорт вин

Черта чёрно-белая, душа очень смелая
Жизнь беспризорная, суть не зазорная
Воля свободная, улови в этом финт

Предприпев.
Припев.
Проигрыш.
Припев.
Добавить новый гитарный бой
Дата: 14-12-2012, 17:49, Добавил: Aurondel, Раздел:
Информация
Посетители, находящиеся в группе Гости, не могут оставлять комментарии к данной публикации.



Популярные песни
  • Титаник
  • Пираты карибского моря
  • Все бабы суки бабы бляди
  • Над старым аулом
  • Ламбада
  • Солдат (из к/ф Мы из будущего)
  • Мальчишка-наркоман
  • За Родину
  • Девочка не надо слезы лить напрасно
  • Орленок - Звезды


  • Облако тегов
    , 8 марта, Ария, Армия, би-2, блядь, Война, гитарное, Гражданская оборона, Грусть, Дворовые, ддт, Звери, Измена, Иностранные, интересное, Кино, КиШ, Красиво, Кузя, лагерное, лагерь, Лирика, Любовь, Любэ, ляпис, Многоточие, Наутилус Помпилиус, о жизни, песня, под гитару, Приколы, Разное, Расставание, Сектор газа, Слезы, Сплин, У костра, Чиж и Ко, Школа

    Показать все теги