Войти
Навигация

Наша группа

0-9  A-Z  А  Б  В  Г  Д  Е  Ж  З  И  К  Л  М  Н  О  П  Р  С  Т  У  Ф  Х  Ц  Ч  Ш  Щ  Ю  Я 

Просмотров: 2636, Комментариев: 0
Am F Hm E

Нас то пиздили, то нас топили
Кругом обступили ногой наступили на нас
Пили тупили кутили мутили
Жили кружили как в первый раз
В начале качали потом отвечали
Дата: 13-12-2012, 14:20, Добавил: Aurondel, Раздел: 5'nizza
Просмотров: 1535, Комментариев: 1
C 9 D 9
E |----x---x--x----x-----x--x--x----x-|
B |----3---3--3----3-----2--2--2----2-|
G |----3---3--3----3-----2--2--2----2-|
D |----2---2--2----2-----1--1--1----1-|
A |-3-----3--3--3-----2----2--2--2----|
E |----x---x--x----x-----x--x--x----x-|

C9
Я варвар
Вар вар вар вар ворвался в этот мир
D9
Как Перл Харбор взорвался
Попал в прямой эфир
C9
С бодрым утром, миру - мир.
Дата: 13-12-2012, 14:12, Добавил: Aurondel, Раздел: 5'nizza
Просмотров: 1049, Комментариев: 0
C7 -5/ E C7 -5/ Hb C7 -5/ G C7 -5
E |-------------------------------------------|
B |------0----------0---------0----------0----|
G |------3----------3---------3----------3----|
D |-----2-2--------2-2-------2-2--------2-2---|
A |----------1----------------------3---------|
E |-0--------------------3--------------------|

Подключен к аппаратуре
трубка изо рта, но не водолаз, нет
увлечен..но о чем-то думать
не сейчас
Дата: 13-12-2012, 13:56, Добавил: Aurondel, Раздел: 5'nizza
Просмотров: 1286, Комментариев: 0
D Dm
След оставил самолет
D
Под ногами тает лед
Dm
Те, кто в нем - уже не с нами
D Dm
Подвесные города
D
Ветром гонится вода
Dm
Веки ходят за руками
Дата: 13-12-2012, 13:21, Добавил: Aurondel, Раздел: 5'nizza
Просмотров: 4480, Комментариев: 0
G G / B G / E
Забери меня к себе
G / C G / D G / E
Я так устал бежать
За тобою вслед
Открой глаза, закрой лицо руками
Свет, я хочу увидеть свет
Между нами
Дата: 13-12-2012, 12:53, Добавил: Aurondel, Раздел: 5'nizza
Просмотров: 1776, Комментариев: 0
C Em F C
Союз нерушимый республик свободных
Dm Dm Dm G
Сплотила навеки великая Русь.(О-о)
C G Am Em
Да здравствует созданный волей народов
F C D G
Единый, могучий Советский Союз. (О-ее)
Дата: 13-12-2012, 12:41, Добавил: Aurondel, Раздел: 5'nizza
Просмотров: 1064, Комментариев: 0
Вся песня играется таким ходом:

E |---6---6-| E |---5---5-|
B |---6---6-| B |---5---5-|
G |---6---6-| 2р. G |---5---5-| 2р.
D |---------| D |---------|
A |-6-------| A |-5-------|
E |-----6---| E |-----5---|

E |---4---4-| E |---3---3-|
B |---4---4-| B |---3---3-|
G |---4---4-| 2р. G |---3---3-| 2р.
D |---------| D |---------|
A |-4-------| A |-3-------|
E |-----4---| E |-----3---|

т.е. просто берем баррэ на соотв. ладу (6,5,4,3) и лабаем

Ни снега - ни града
Мне не рада вода
Это странно
Минимум она с небес
Моя и ванна полна наполовину
Дата: 13-12-2012, 12:33, Добавил: Aurondel, Раздел: 5'nizza


Популярные песни
  • Титаник
  • Пираты карибского моря
  • Все бабы суки бабы бляди
  • Над старым аулом
  • Ламбада
  • Солдат (из к/ф Мы из будущего)
  • Мальчишка-наркоман
  • За Родину
  • Орленок - Звезды
  • Девочка не надо слезы лить напрасно


  • Облако тегов
    , 8 марта, Ария, Армия, би-2, блядь, Валерий Скутин, Война, Грусть, Дворовые, ддт, Звери, Измена, Иностранные, интересное, Кино, КиШ, Красиво, Кузя, лагерное, лагерные песни, лагерь, Лирика, Любовь, Любэ, ляпис трубецкой, Многоточие, Наутилус Помпилиус, о жизни, песня, под гитару, Приколы, Разное, Расставание, Сектор газа, Слезы, Сплин, У костра, Чиж и Ко, Школа

    Показать все теги