Войти
Навигация

Наша группа

0-9  A-Z  А  Б  В  Г  Д  Е  Ж  З  И  К  Л  М  Н  О  П  Р  С  Т  У  Ф  Х  Ц  Ч  Ш  Щ  Ю  Я 

Просмотров: 1223, Комментариев: 0
Gm7~g#m7 Cm7 Gm7 C#m7~Dm7 Fm (VIII)

Gm7 G#m7
Не прогревает землю слонце
Cm7 Gm7
Выпускаю дыма кольца
C#m7 Dm
Не считаю сколько их
Fm7
Только у нас не видно глаз
Дата: 13-12-2012, 17:51, Добавил: Aurondel, Раздел: 5'nizza
Просмотров: 1424, Комментариев: 0
Ритмически в песне всего 2 части:

1) вступительная интерлюдия,где голосом поется примерно так

Hm G Hm G F#
Ля-ля -ля ля-ля ля -ля ля
E |-----------------------------------|
B |-----------------------------------|
G |-4---------------------------------|
D |--4----------------4---------------|
A |---5----7----5--7----5---2---------|
E |---------------------3-2-----------|

2)"Соло" в середине,где голосом поется примерно так
Дата: 13-12-2012, 17:35, Добавил: Aurondel, Раздел: 5'nizza
Просмотров: 1729, Комментариев: 0
Dm Gm Dm Gm
Холода, не огонь не вода,
Dm Gm Dm Gm
Никуда солнце по кругу идет.
B Dm
Половина меня допоет, допоет,
B
Половина меня...
Дата: 13-12-2012, 17:14, Добавил: Aurondel, Раздел: 5'nizza
Просмотров: 1012, Комментариев: 0
Gm
Оттуда туда
D
Прямо на меня
Gm D
Правила меняют нас на самолеты
Ты
А ты на повороте
Не ко мне ко мне ко мне
Дата: 13-12-2012, 17:00, Добавил: Aurondel, Раздел: 5'nizza
Просмотров: 1113, Комментариев: 0
Аккорды такие:
Gm D5 G# Gm
При переходах между ними вставлять по одной ноте или квинте,
Вот так:
Gm D5 G# Gm
E |-----------------------------------------------------------|
B |---3---------3---------4------4-------3------3-------------|
G |---3---------3---7---------7---5---------5-----3---------3-|
D |---5---------5---7---------7---6---------6-----5---------5-|
A |-------5----------3----------------------------------------|
E |-3---3-3-3-3---1---5-5-5-5---4---4-4-4-4---6-3---3-3-3-3---|

Вау! {Ваоу} Ва-ва-ва-ва-вавау - вау {Ваоу}....

Не то,не то,не то, оно не тонет,нет
Не оторорожает светлееет
Голова моя боле-е-ет . . Ое-оле-оле-оле!
Дата: 13-12-2012, 16:49, Добавил: Aurondel, Раздел: 5'nizza
Просмотров: 1451, Комментариев: 0
Гитарная партия на протяжении всей песни:

Am C F Em
E ||-----0---------------------|-----1-------------------||
H ||--------1----------1h3p-0--|-----1-------------------||
G ||-----------------0---------|-----------------0-------||
D ||--------------2------------|--------3-----2----------||
A ||--0--------3---------------|--------------------2⁄---||
E ||---------------------------|--1--------0-------------||

Бачу, чую... але де вони, де вони, де?
Палає усе навколо мене.
А море червоніє, ні є,
Воно біле, не чорне, ні є.
Дата: 13-12-2012, 16:36, Добавил: Aurondel, Раздел: 5'nizza
Просмотров: 4495, Комментариев: 0
Intro: G# / G# , C#m / C# это G# , C#

D#m7 ( b5 )/ D# D#m7 ( b5 )/ D
Спроси Неву,
G# / G# C#m / C#
ты знаешь, я давно живу
D#m7 ( b5 )/ D# D#m 7( b5 )/ D
уйти, -куда?
Дата: 13-12-2012, 14:32, Добавил: Aurondel, Раздел: 5'nizza


Популярные песни
  • Титаник
  • Пираты карибского моря
  • Все бабы суки бабы бляди
  • Над старым аулом
  • Ламбада
  • Солдат (из к/ф Мы из будущего)
  • Мальчишка-наркоман
  • За Родину
  • Орленок - Звезды
  • Девочка не надо слезы лить напрасно


  • Облако тегов
    , 8 марта, Ария, Армия, би-2, блядь, Валерий Скутин, Война, Грусть, Дворовые, ддт, Звери, Измена, Иностранные, интересное, Кино, КиШ, Красиво, Кузя, лагерное, лагерь, Лирика, Любовь, Любэ, ляпис трубецкой, Многоточие, Наутилус Помпилиус, о жизни, песни, песня, под гитару, Приколы, Разное, Расставание, Сектор газа, Слезы, Сплин, У костра, Чиж и Ко, Школа

    Показать все теги