Войти
Навигация

Наша группа

0-9  A-Z  А  Б  В  Г  Д  Е  Ж  З  И  К  Л  М  Н  О  П  Р  С  Т  У  Ф  Х  Ц  Ч  Ш  Щ  Ю  Я 

Просмотров: 997, Комментариев: 0
E ||-2-|-2-2-2-5-3-5-5-|-------2-0-2-5-|---------------|
B ||-3-|-3-3-3---------|-3-3-3-----2---|-0-0-0-3-2-3-3-|
G ||-2-|-2-2-2-----6---|-4-4-4-----2---|-0-0-0-----2---|
D ||---|---0-0-----7---|-4-4-4---------|-0-0-0-----4---|
A ||---|-----------0---|-2-2-2---------|---------------|
D ||-0-|-0-------------|-----------4---|-5-5-5-----0---|
Дата: 1-02-2014, 15:45, Добавил: Aurondel, Раздел: Вивальди Антонио
Просмотров: 1154, Комментариев: 0
E |--------7--|-8---7---|----------|--------------|-------------|
B |----10-----|---------|-10---10--|-8------------|-------------|
G |-9---------|---------|----------|----10--9--7--|-------------|
D |-----------|---------|----------|--------------|-10--9--7--9-|
A |-----------|---------|----------|--------------|-------------|
E |-----------|---------|----------|--------------|-------------|
Дата: 28-01-2014, 20:05, Добавил: Aurondel, Раздел: Вивальди Антонио
Просмотров: 2355, Комментариев: 0
E |----18-16-15----------------16--15---------------16---16--15-|
B |-16----------18-16-18---------------18--16--15---------------|
G |----------------------15-15----------------------------------|
D |-------------------------------------------------------------|
A |-------------------------------------------------------------|
E |-------------------------------------------------------------|
Дата: 27-01-2014, 17:43, Добавил: Aurondel, Раздел: Вивальди Антонио
Просмотров: 1687, Комментариев: 0
1 2
E |-0--4-4-4-----7---7-5-|-4-4-4-----7---7-5-|
B |-0--5-5-5-7-5-9-------|-5-5-5-7-5-9-------|
G |----------------------|-------------------|
D |----------------------|-------------------|
A |-7--7---7-----7-7-----|-7---7-----7-7-----|
E |----------------------|-------------------|
Дата: 27-01-2014, 17:36, Добавил: Aurondel, Раздел: Вивальди Антонио
Просмотров: 1145, Комментариев: 0
E |---------------------------|---------------------------|
B |---------------------------|---------------------------|
G |--12-0-0-0-0-0-0-0-0-0-0-0-|--10-0-0-0-0-0-0-0-0-0-0-0-|
D |---------------------------|---------------------------|
A |---------------------------|---------------------------|
E |---------------------------|---------------------------|
Дата: 27-01-2014, 16:05, Добавил: Aurondel, Раздел: Вивальди Антонио
Просмотров: 919, Комментариев: 0
1 2
E |-0--4-4-4-----7---7-5-|-4-4-4-----7---7-5-|
B |-0--5-5-5-7-5-9-------|-5-5-5-7-5-9-------|
G |----------------------|-------------------|
D |----------------------|-------------------|
A |-7--7---7-----7-7-----|-7---7-----7-7-----|
E |----------------------|-------------------|
Дата: 27-01-2014, 15:54, Добавил: Aurondel, Раздел: Вивальди Антонио


Популярные песни
  • Титаник
  • Пираты карибского моря
  • Все бабы суки бабы бляди
  • Над старым аулом
  • Ламбада
  • Солдат (из к/ф Мы из будущего)
  • Мальчишка-наркоман
  • За Родину
  • Девочка не надо слезы лить напрасно
  • Орленок - Звезды


  • Облако тегов
    , 8 марта, Ария, Армия, би-2, блядь, Война, Грусть, Дворовые, ддт, Звери, Измена, Иностранные, интересное, Кино, КиШ, Красиво, красивые мелодии, Кузя, лагерное, лагерь, Лирика, Любовь, Любэ, Многоточие, Наутилус Помпилиус, о жизни, песни, песня, под гитару, Приколы, прикольное, Разное, Расставание, Сектор газа, Слезы, Сплин, У костра, Чиж и Ко, Школа

    Показать все теги