Войти
Навигация

Наша группа

0-9  A-Z  А  Б  В  Г  Д  Е  Ж  З  И  К  Л  М  Н  О  П  Р  С  Т  У  Ф  Х  Ц  Ч  Ш  Щ  Ю  Я 

Просмотров: 1032, Комментариев: 0
E |--------12-11|12-11-12-7-10-8|-5---------5|-7-----0-4-7-|
B |--------------|---------------|---------5--|------------|
G |--------------|---------------|-------5----|------------|
D |--------------|---------------|-----7------|-----6------|
A |--------------|---------------|---7--------|---7--------|
E |-------------|---------------|-5----------|-0-----------|
Дата: 22-01-2014, 16:02, Добавил: Aurondel, Раздел: Бетховен Людвиг ван
Просмотров: 715, Комментариев: 0
Часть A:
E |-12--11--|-12--11--12-------------|-----------------------|
B |---------|-------------12--15--13-|-----------------------|
3 G |--------o|o-----------------------|-14-----------------14-|
- D |--------o|o-----------------------|----------------14-----|
4 A |---------|------------------------|-0------12--15---------|
E |---------|------------------------|----12-----------------|
Дата: 22-01-2014, 15:41, Добавил: Aurondel, Раздел: Бетховен Людвиг ван
Просмотров: 5483, Комментариев: 0
Am E Am
E |-0---0---0---------------------------------------|
B |---4---4---0-3-1-------------0---------0-1-------|
G |-----------------2---------2-----1---1-----------|
D |-------------------2-----2-----2---2-------2---2-|
A |-----------------0---0-3-----------------0---0---|
E |-----------------------------0-------------------|
Дата: 22-01-2014, 15:15, Добавил: Aurondel, Раздел: Бетховен Людвиг ван
Просмотров: 719, Комментариев: 0
E |-0--0---1--3-|-3--1--0----|----------0-|-0--------|
B |-------------|-0--------3-|-1--1--3----|------3-3-|
G |-0-----------|------------|----------0-|-0--------|
D |--------0--2-|-2--0-------|-2--2--3----|--------3-|
A |-3--3--------|-------3--2-|-3----------|----------|
E |-------------|------------|------------|-3--------|
Дата: 21-01-2014, 19:53, Добавил: Aurondel, Раздел: Бетховен Людвиг ван
Просмотров: 685, Комментариев: 0
E ||---0-----0-----1-----3-----|--3-----1-----0-----------|
B ||---------------------------|--------------------3-----|
G ||*-----0-----0-----0-----0--|-----0-----0-----0-----0--|
D ||*--------------0-----------|--------------------------|
A ||---3-----------------------|--2-----------------------|
E ||---------------------------|--------------3-----------|
Дата: 21-01-2014, 19:48, Добавил: Aurondel, Раздел: Бетховен Людвиг ван
Просмотров: 1132, Комментариев: 0
E |-----------------------------|-------------------------------|
B |-----------------------------|-------------------------------|
G |-----0-------0-------0-----0-|-----0-------0-------0-------0-|
D |---------2--------------2----|---------3---------------3-----|
A |-3---------------3-----------|-3---------------3-------------|
E |-----------------------------|-------------------------------|
Дата: 21-01-2014, 19:43, Добавил: Aurondel, Раздел: Бетховен Людвиг ван
Просмотров: 751, Комментариев: 0
E |----|---------0---|-------------|-----1--------|
B |----|-1---1-------|-1---1---1---|-3-----3-0----|
G |-0.-|---0---0---0-|---0---0---0-|---0-------0--|
D |----|-----2---2---|-----2---2---|-3---3---3----|
A |----|-3-----------|-3-----------|--------------|
E |----|-------------|-------------|--------------|
Дата: 21-01-2014, 19:34, Добавил: Aurondel, Раздел: Бетховен Людвиг ван


Популярные песни
  • Титаник
  • Пираты карибского моря
  • Все бабы суки бабы бляди
  • Над старым аулом
  • Ламбада
  • Солдат (из к/ф Мы из будущего)
  • Мальчишка-наркоман
  • За Родину
  • Орленок - Звезды
  • Девочка не надо слезы лить напрасно


  • Облако тегов
    , 8 марта, Ария, Армия, би-2, блядь, Валерий Скутин, Война, Грусть, Дворовые, ддт, Звери, Измена, Иностранные, интересное, Кино, КиШ, Красиво, Кузя, лагерное, лагерь, Лирика, Любовь, Любэ, ляпис трубецкой, Многоточие, Наутилус Помпилиус, о жизни, песни, песня, под гитару, Приколы, Разное, Расставание, Сектор газа, Слезы, Сплин, У костра, Чиж и Ко, Школа

    Показать все теги