Войти
Навигация

Наша группа

0-9  A-Z  А  Б  В  Г  Д  Е  Ж  З  И  К  Л  М  Н  О  П  Р  С  Т  У  Ф  Х  Ц  Ч  Ш  Щ  Ю  Я 

Аккорды к песне Любэ - Давай за... (2 вариант)

Просмотров: 1493, Комментариев: 0
 (голосов: 0)




Транспонировать:
E ||----------------|--4---2--|--4---------2----|
B ||--------2-------|---------|-------3---------|
G ||-----2-----2----|---------|----------2------|
D ||--4-------------|---------|-----------------|
A ||----------------|---------|--2--------------|
E ||----------------|---------|-----------------|

------------------|--5--------4--------|
---------2--------|--------------------|
-----4-------4----|--------------------|
------------------|--------------------|
-4----------------|--------------------|
------------------|--------------------|

--4--------------2----||
------------2---------||
-------2--------------||
--4-------------------||
----------------------||
----------------------||

Fm# Hm E
Война и на и най най най най на
A Fm#
Война и на и най най най най на 2 раза

Fm#
Серыми тучами небо затянуто
Hm
Нервы гитарной струною натянуты
E
Дождь барабанит с утра и до вечера
A
Время застывшее кажется вечностью
Fm#
Нас раскидали по всем направлениям
Hm
Танки пехота огонь артиллерия
E
Нас убивают, но мы выживаем
A
И снова в атаку себя мы бросаем

Fm# Hm E
Давай за жизнь, давай брат до конца
A Fm#
Давай за тех, кто с нами был тогда
Hm E
Давай за жизнь давай брат до конца
A Fm#
Помянем тех, кто с нами был тогда

Небо над нами свинцовыми тучами
Стелится низко туманами рваными
Хочется верить, что всё уже кончилось
Только бы выжил товарищ раненый
Ты потерпи, браток, не умирай пока
Будешь ты жить ещё долго и счастливо
Будем на свадьбе твоей мы отплясывать
Будешь ты в небо детишек подбрасывать

Давай за жизнь, держись, брат, до конца
Давай за тех, кто дома ждёт тебя
Давай за жизнь, будь проклята война
Давай за тех, кто дома ждёт (тебя)

Давай за них, давай за нас
И за Сибирь, и за Кавказ
За свет далёких городов
И за друзей, и за любовь
Давай за вас, давай за нас
И за десант, и за спецназ
За боевые ордена
Давай поднимем, старина

В старом альбоме нашёл фотографии
Деда, он был командир красной армии

Века ушедшего воспоминания
Запах травы на рассвете не скошенной
Стоны земли от бомбёжек распаханной
Пара солдатских ботинок истоптанных
Войнами новыми, войнами старыми

Давай за жизнь...
Давай за тех...
Давай за жизнь...
Давай помянем тех, кто с нами был...
Добавить новый гитарный бой
Дата: 30-05-2014, 21:53, Добавил: Aurondel, Раздел: Любэ
Информация
Посетители, находящиеся в группе Гости, не могут оставлять комментарии к данной публикации.



Популярные песни
  • Титаник
  • Пираты карибского моря
  • Все бабы суки бабы бляди
  • Над старым аулом
  • Ламбада
  • Солдат (из к/ф Мы из будущего)
  • Мальчишка-наркоман
  • За Родину
  • Орленок - Звезды
  • Девочка не надо слезы лить напрасно


  • Облако тегов
    , 8 марта, Ария, Армия, би-2, блядь, Валерий Скутин, Война, Грусть, Дворовые, ддт, Звери, Измена, Иностранные, интересное, Кино, КиШ, Красиво, Кузя, лагерное, лагерь, Лирика, Любовь, Любэ, ляпис трубецкой, Многоточие, Наутилус Помпилиус, о жизни, песни, песня, под гитару, Приколы, Разное, Расставание, Сектор газа, Слезы, Сплин, У костра, Чиж и Ко, Школа

    Показать все теги