Войти
Навигация

Наша группа

0-9  A-Z  А  Б  В  Г  Д  Е  Ж  З  И  К  Л  М  Н  О  П  Р  С  Т  У  Ф  Х  Ц  Ч  Ш  Щ  Ю  Я 

Аккорды к песне Bryan Adams - 18 Till I Die (2 вариант)

Просмотров: 599, Комментариев: 0
 (голосов: 0)




Транспонировать:
Main Riff

E |----------------|----------------------------|
B |-------9-------7|----------------------------|
G |----------------|-------9-------9-------9----|
D |----9-----9-9---|--9-7-----7-7-----7-7-----7-|
A |-7--------------|----------------------------|
E |----------------|----------------------------|

2.This is the 2nd way you can do it, it also sound cool..

E |-------4-------2-|---------------------------|
B |-----------------|-------5------5-------5----|
G |----4-----4-4----|-4--2-----2-2----2-2-----2-|
D |-2---------------|---------------------------|
A |-----------------|---------------------------|
E |-----------------|---------------------------|

All the Verses:
(Use Lightish to harder Distortion)
Do "part 1" then sing "Dont want to grow up" then "part 2"
and then "thats wishfull thinking"
The whole time he sings between guitar strums.

"Part 1" "Part2"
E |------------------==-------------|---------------------------------|
B |-x-x-----------------------------|---------------------------------|
G |-x-x-----77--------99------------|---------------------------------|
D |-x-x-----77-Dm-----99-Em---------|------x-x------9-----------7-----|
A |-x-x-----55--------77------------|------x-x------9--Bm-------7--Am-|
E |---------------------------------|------x-x------7-----------5-----|

Prechorus:(when going into the Pre chorus,slide from Am)

Gm Am (These chords are muted and occasionally released
according to your own style)
E |------------------------------------|
B |------------------------------------|
G |------------------------------------|
D |-7-⁄5-5-5-5-5-5-5-5/7-7-7-7-7-7-7-7-|
A |-7-⁄5-5-5-5-5-5-5-5/7-7-7-7-7-7-7-7-|
E |-5-⁄3-3-3-3-3-3-3-3/5-5-5-5-5-5-5-5-|

Chorus..

"18 till i die,Gonna be 18 till i Die",Ect
Strumming is not indicated,but its just A basic, D G Em A2 proggression..
Its all distorted,just sing while strumming these chords and you will get it!!

E |-----------------------------------------------------|
B |---------------------------------------------------0-|
G |-7---------------------3-------------0-------------2-|
D |-7---Dm----------------5-------------2-Em----------2-|
A |-5---------------------5---Gm--------2-------------0-|
E |-5---------------------3-----------------------------|
Добавить новый гитарный бой
Дата: 4-02-2014, 19:07, Добавил: Aurondel, Раздел: Иностранные
Информация
Посетители, находящиеся в группе Гости, не могут оставлять комментарии к данной публикации.



Популярные песни
  • Титаник
  • Пираты карибского моря
  • Все бабы суки бабы бляди
  • Над старым аулом
  • Ламбада
  • Солдат (из к/ф Мы из будущего)
  • Мальчишка-наркоман
  • За Родину
  • Орленок - Звезды
  • Девочка не надо слезы лить напрасно


  • Облако тегов
    , 8 марта, Ария, Армия, би-2, блядь, Валерий Скутин, Война, Грусть, Дворовые, ддт, Звери, Измена, Иностранные, интересное, Кино, КиШ, Красиво, Кузя, лагерное, лагерь, Лирика, Любовь, Любэ, ляпис трубецкой, Многоточие, Наутилус Помпилиус, о жизни, песни, песня, под гитару, Приколы, Разное, Расставание, Сектор газа, Слезы, Сплин, У костра, Чиж и Ко, Школа

    Показать все теги