Войти
Навигация

Наша группа

0-9  A-Z  А  Б  В  Г  Д  Е  Ж  З  И  К  Л  М  Н  О  П  Р  С  Т  У  Ф  Х  Ц  Ч  Ш  Щ  Ю  Я 

Аккорды к песне Кино - Последний герой

Просмотров: 2955, Комментариев: 0
 (голосов: 10)




Транспонировать:
Вступление

E |--0--0--0--------3-------2-------0---|-2-3-2-3-2-3-2-3-2-|
B |--0--0--0-------0-------0-------0----|-3-3-3-3-3-3-3-3-3-|
G |--0--0--0------0-------0-------0-----|-2-2-2-2-2-2-2-2-2-|
D |--2--2--2-----2-------2-------2------|-0-0-0-0-0-0-0-0-0-|
A |--2--2--2----2-------2-------2-------|-0-0-0-0-0-0-0-0-0-|
E |--0--0--0---0-------0-------0--------|-0-0-0-0-0-0-0-0-0-|

Конец бас

E |----------2----------2--3-5----(7)-|
B |----------3----------3--4-6----(8)-|
G |----------4----------4--5-7----(9)-|
D |----------4----------4--5-7----(9)-|
A |----------2----------2--3-5----(7)-|
E |-0-7-0-3--2--0-7-0-3-2--3-5----(7)-|

(Что в скобках играется только в последний раз!)

Куплет
E |----------------------------------------------------------|
B |--------0-0-------0-----------------------------0-0-0-0-0-|
G |------0-----2-0-2---0-0-0-----0-2-0---0-------0-----------|
D |--2-2---------------------4-4-------4---4-2-2-------------|
A |----------------------------------------------------------|
E |----------------------------------------------------------|

E |-------------------------------|
B |0-0------------------------0---|
G |----2--2-2-0-0-0-------0-0---2-|
D |-----------------4-4-4---------|
A |-------------------------------|
E |-------------------------------|

Припев

E |0-0-0---------------0-0-0--------------------0-0-0---------|
B |------0-0-0-0-------------0-0-0-0------------------0-0-0-0-|
G |--------------2-0-2---------------2-0-2-0------------------|
D |------------------------------------------4----------------|
A |-----------------------------------------------------------|
E |-----------------------------------------------------------|

E |--------------------------|
B |----------------------0---|
G |2-0-2---0---0-----------2-|
D |----------2---4-4-4-4-----|
A |--------------------------|
E |--------------------------|

Em Hm G D
Ночь коротка, цель далека,
Em Hm G D
Ночью так часто хочется пить,
Em Hm
Ты выходишь на кухню,
G D
Но вода здесь горька,
Em Hm
Ты не можешь здесь спать,
G D
Ты не хочешь здесь жить.

Em Hm G D
Доброе утро, последний герой!
Em Hm G D
Доброе утро тебе и таким, как ты,
Em Hm G D
Доброе утро, последний герой.
Em Hm Em
Здравствуй, последний герой! /Em G Hm /

Ты хотел быть один, это быстро прошло,
Ты хотел быть один, но не смог быть один,
Твоя ноша легка, но немеет рука,
И ты встречаешь рассвет за игрой в дурака.

Утром ты стремишься скорее уйти,
Телефонный звонок, как команда "Вперед!"
Ты уходишь туда, куда не хочешь идти,
Ты уходишь туда, но тебя там никто не ждет!


Добавить новый гитарный бой
Дата: 18-01-2014, 18:57, Добавил: Aurondel, Раздел: Кино
Информация
Посетители, находящиеся в группе Гости, не могут оставлять комментарии к данной публикации.



Популярные песни
  • Титаник
  • Пираты карибского моря
  • Нежный голос тишины
  • Ламбада
  • Все бабы суки бабы бляди
  • Там на суку
  • Фактор 2 - Шалава
  • Над старым аулом
  • Песни к 8 марта: Необыкновенная
  • Константин Куклин - Асфадель


  • Облако тегов
    , 8 марта, Ария, Армия, би-2, блядь, Война, Грусть, Дворовые, ддт, Звери, Измена, Иностранные, интересное, Кино, КиШ, Красиво, красивые мелодии, Кузя, лагерное, лагерь, Лирика, Любовь, Любэ, Многоточие, Наутилус Помпилиус, о жизни, песни, песня, под гитару, Приколы, прикольное, Разное, Расставание, Сектор газа, Слезы, Сплин, У костра, Чиж и Ко, Школа

    Показать все теги