Войти
Навигация

Наша группа

0-9  A-Z  А  Б  В  Г  Д  Е  Ж  З  И  К  Л  М  Н  О  П  Р  С  Т  У  Ф  Х  Ц  Ч  Ш  Щ  Ю  Я 

Аккорды к песне ДДТ - Пасха

Просмотров: 1321, Комментариев: 0
 (голосов: 0)




Транспонировать:
Вступление:
Em Am / F# G Em Am / F# Em
E |-----0-------0-------------------|-----0-------0-----------0-|
B |-----0-------1-------3-0-1-0-1---|-----0-------1---------0---|
G |---0---0---2---2---0-----------2-|---0---0---2---2-----0-----|
D |---------------------------------|-------------------2-------|
A |---------------------------------|---------------------------|
E |-0-------2-------3---------------|-0-------2-------0---------|
играть 3 раза

(Играется как во вступлении)
Em Am / F# G
Думали что все но только началось
Стали мы дождем
С болью и тоской в мире прижилось
Em Am / F# Em
Все твое о нем

Em / G Am / F# Em / G
E |-------|-----------------------------------------------|
B |-------|-----0----------------1---------------0-3-0----|
G |-------|---0---0------------2---2----------0-----------|
D |-------|-----------------------------------------------|
A |-------|-----------------------------------------------|
E |-0-0-2-|-3----------------2--------------3-------------|
Билась за любовь рваная весна

Em / G Am / F# Em / G
E |-------------------------------------------------------------|
B |-------------0----------------1--------------3-0-1-0-1-------|
G |-----------0---0------------2---2----------0-----------2-----|
D |-------------------------------------------------------------|
A |-------------------------------------------------------------|
E |---------3----------------2--------------3-------------------|
Шел догрогой в храм

Em / G Am / F# Em
E |-------------------------------------------------------------|
B |------------1----------------2--------------0--3--0----------|
G |----------1---1------------3---3----------0------------------|
D |-------------------------------------------------------------|
A |-------------------------------------------------------------|
E |--------4----------------3--------------0--------------------|
На столе цветы на душе война

Em / G Am / F# Em
E |-------------------------------------------------0-----------|
B |-------------0----------------1----------------0-------------|
G |-----------0---0------------2---2------------0---------------|
D |-------------------------------------------2-----------------|
A |-------------------------------------------------------------|
E |---------3----------------2--------------0-------------------|
Разби - раться нам

Припев: (играется как во вступлении)
Вечер
Расписался на рассвете
То что мной когда то было
Пожелтело и уплыло
В небесах дымит кадило
Я за все давно в ответе
Только чистый пряный ветер

A |-------0------|
E |--3--3---3-2--|

Ты душа моя

Думал починит отрубил с плеча
Продолжали плыть
Думал не успеть ожила свеча
Наказала быть

Все что было мной это тоже он
Сваренный добром
Пасха началась колокольный звон
Дышит медным ртом

Припев.

Отпустил грехи ветер да унес
Отворилась дверь
Все что было мной в запахе берез
Верь

Положил овса в поле унесла
Стали мы луной
Все что было мной на краю села
Замело стеной

Припев.
Добавить новый гитарный бой
Дата: 7-11-2013, 15:55, Добавил: Aurondel, Раздел: ДДТ
Информация
Посетители, находящиеся в группе Гости, не могут оставлять комментарии к данной публикации.



Популярные песни
  • Титаник
  • Пираты карибского моря
  • Все бабы суки бабы бляди
  • Над старым аулом
  • Ламбада
  • Солдат (из к/ф Мы из будущего)
  • Мальчишка-наркоман
  • За Родину
  • Орленок - Звезды
  • Девочка не надо слезы лить напрасно


  • Облако тегов
    , 8 марта, Ария, Армия, би-2, блядь, Валерий Скутин, Война, Грусть, Дворовые, ддт, Звери, Измена, Иностранные, интересное, Кино, КиШ, Красиво, Кузя, лагерное, лагерные песни, лагерь, Лирика, Любовь, Любэ, ляпис трубецкой, Многоточие, Наутилус Помпилиус, о жизни, песня, под гитару, Приколы, Разное, Расставание, Сектор газа, Слезы, Сплин, У костра, Чиж и Ко, Школа

    Показать все теги