Войти
Навигация

Наша группа

0-9  A-Z  А  Б  В  Г  Д  Е  Ж  З  И  К  Л  М  Н  О  П  Р  С  Т  У  Ф  Х  Ц  Ч  Ш  Щ  Ю  Я 

Аккорды к песне Iron Maiden - Deja Vu

Просмотров: 160, Комментариев: 0
 (голосов: 0)




Транспонировать:
Вступление: медленно играть.

E |------------------------|------------------------|
B |-----------0-1-3--1-----|---------0-1-3-3--1-----|
G |---------2-2-2-2--2-----|-------2-2-2-2-2--2-----|
D |-------2-2-2-2-2--2-----|----2--2-2-2-2-2--2-----|
A |----0-------------------|------------------------|
E |-0-------------------0~-|-1-------------------1~-|

E |-----------------------|-------------------------|
B |-------------3---------|-----------0-1-3-1----0~-|
G |----------0--2----0--0-|-------2---2-2-2-2----2~-|
D |-------2-----0----2--0-|----2------2-2-2-2----2~-|
A |----2-------------3--2-|-0-----------------------|
E |-0---------------------|-------------------------|

E |------------------------|------------------------|
B |-----------0-1-3--1-----|---------0-1-3-3--1-----|
G |---------2-2-2-2--2-----|-------2-2-2-2-2--2-----|
D |-------2-2-2-2-2--2-----|----2--2-2-2-2-2--2-----|
A |----0-------------------|------------------------|
E |-0-------------------0~-|-1-------------------1~-|

E |-----------------------|--------------------------|
B |-------------3---------|-------0-1-3-3-3-1-1-1-0~-|
G |----------0--2----0--0-|-----2-2-2-2-2-2-2-2-2-2~-|
D |-------2-----0----2--0-|---2---2-2-2-2-2-2-2-2-2~-|
A |----2-------------3--2-|-0---------------------0~-|
E |-0---------------------|--------------------------|

Проигрыш-1:

E |----------8-9-11-9-8---------|-----------8-----------|
B |-9--9--11------------9--8--9-|-8--9--11-----11--9--8-|
G |-----------------------------|-----------------------|
D |-----------------------------|-----------------------|
A |-----------------------------|-----------------------|
E |-----------------------------|-----------------------|

E |----------8-9-11-9-8---------|-----------8-------------|
B |-9--9--11------------9--8--9-|-8--9--11-------11--9--8-|
G |-----------------------------|-------------------------|
D |-----------------------------|-------------------------|
A |-----------------------------|-------------------------|
E |-----------------------------|-------------------------|

E |----------8-9-11-9-8---------|-----------8-------------|
B |-9--9--11------------9--8--9-|-8--9--11-------11--9--8-|
G |-----------------------------|-------------------------|
D |-----------------------------|-------------------------|
A |-----------------------------|-------------------------|
E |-----------------------------|-------------------------|

E |----------8-9-11-9-8----------|
B |-9--9--11------------9--8--9~-|
G |------------------------------|
D |------------------------------|
A |------------------------------|
E |------------------------------|

Проигрыш-3
E |-----------------------------------------|
B |----13-9----11-9-------13-9----11-9------|
G |-10------10------10-10------10-------10~-|
D |-----------------------------------------|
A |-----------------------------------------|
E |-----------------------------------------|

E |-----------------------------------|
B |----13-9----11-9-9-8----11-9-8-----|
G |-10------10----------10--------10~-|
D |-----------------------------------|
A |-----------------------------------|
E |-----------------------------------|

E |-----------------------------------------|
B |----13-9----11-9-------13-9----11-9------|
G |-10------10------10-10------10-------10~-|
D |-----------------------------------------|
A |-----------------------------------------|
E |-----------------------------------------|

E |-----------------------------------|
B |----13-9----11-9-9-8----11-9-8-----|
G |-10------10----------10--------10~-|
D |-----------------------------------|
A |-----------------------------------|
E |-----------------------------------|

Куплет:

F5
E |----------------------------------------|
B |----------------------------------------|
G |-10--10-----10---10--10--10-----10---10-|
D |-10--10-----10---10--10--10-----10---10-|
A |-8---8--8-8-8--8-8---8---8--8-8-8--8-8--|
E |----------------------------------------|
When you see familiar faces

E |----------------------------------------|
B |----------------------------------------|
G |-10--10-----10---10--10--10-----10---10-|
D |-10--10-----10---10--10--10-----10---10-|
A |-8---8--8-8-8--8-8---8---8--8-8-8--8-8--|
E |----------------------------------------|
But You don?t know where they?re from

D#5
E |---------------------------------------|
B |---------------------------------------|
G |-8---8------8----8---8---8------8----8-|
D |-8---8------8----8---8---8------8----8-|
A |-6---6--6-6-6--6-6---6---6--6-6-6--6-6-|
E |---------------------------------------|
Could you be wrong

E |---------------------------------------|
B |---------------------------------------|
G |-8---8------8----8---8---8------8----8-|
D |-8---8------8----8---8---8------8----8-|
A |-6---6--6-6-6--6-6---6---6--6-6-6--6-6-|
E |---------------------------------------|

F5
E |----------------------------------------|
B |----------------------------------------|
G |-10--10-----10---10--10--10-----10---10-|
D |-10--10-----10---10--10--10-----10---10-|
A |-8---8--8-8-8--8-8---8---8--8-8-8--8-8--|
E |----------------------------------------|
When you?ve been particular places

E |----------------------------------------|
B |----------------------------------------|
G |-10--10-----10---10--10--10-----10---10-|
D |-10--10-----10---10--10--10-----10---10-|
A |-8---8--8-8-8--8-8---8---8--8-8-8--8-8--|
E |----------------------------------------|
that you know you never been before

D#5
E |---------------------------------------|
B |---------------------------------------|
G |-8---8------8----8---8---8------8----8-|
D |-8---8------8----8---8---8------8----8-|
A |-6---6--6-6-6--6-6---6---6--6-6-6--6-6-|
E |---------------------------------------|
Can you be sure

E |---------------------------------------|
B |---------------------------------------|
G |-8---8------8----8---8---8------8----8-|
D |-8---8------8----8---8---8------8----8-|
A |-6---6--6-6-6--6-6---6---6--6-6-6--6-6-|
E |---------------------------------------|

D#7
E |---------------------------------------|
B |---------------------------------------|
G |-8---8------8----8---8---8------8----8-|
D |-8---8------8----8---8---8------8----8-|
A |-4---4--4-4-4--4-4---6---6--6-6-6--6-6-|
E |---------------------------------------|
Cause you know this

E |----------------------------------------|
B |----------------------------------------|
G |-10--10-----10---10--10--10-----10---10-|
D |-10--10-----10---10--10--10-----10---10-|
A |-8---8--8-8-8--8-8---8---8--8-8-8--8-8--|
E |----------------------------------------|
has happened before

E |---------------------------------------|
B |---------------------------------------|
G |-8---8------8----8---8---8------8----8-|
D |-8---8------8----8---8---8------8----8-|
A |-4---4--4-4-4--4-4---6---6--6-6-6--6-6-|
E |---------------------------------------|
And you know that this

E |---------------------------------------|
B |---------------------------------------|
G |-10--10-----10---10--8---8------8----8-|
D |-10--10-----10---10--8---8------8----8-|
A |-8---8--8-8-8--8-8---6---6--6-6-6--6-6-|
E |---------------------------------------|
moment in time is for real

E |---------------------------------------|
B |---------------------------------------|
G |-8---8------8----8---8---8------8----8-|
D |-8---8------8----8---8---8------8----8-|
A |-4---4--4-4-4--4-4---6---6--6-6-6--6-6-|
E |---------------------------------------|
And you know when you feel deja vu

Проигрыш-2: - повторить два раза.

E |----------------------------|----------------------------|
B |-------13--9------11--9-----|-------13--9------11--9-----|
G |-10-----------10---------10-|-10-----------10---------10-|
D |----------------------------|----------------------------|
A |----------------------------|----------------------------|
E |----------------------------|----------------------------|

E |----------------------------|----------------------------|
B |-------13--9------11--9-----|------13--9------11--9------|
G |-10-----------10---------10-|-10----------10---------10~-|
D |----------------------------|----------------------------|
A |----------------------------|----------------------------|
E |----------------------------|----------------------------|

Припев:

F5 D#5
E |--------------------|----------------------------|
B |--------------------|----------------------------|
G |-10---------------8-|-10----------8-----8-8-8-10-|
D |-10---------------8-|-10----------8-----8-8-8-10-|
A |-8----------------6-|-8-----8-8-8-6-----6-6-6-8--|
E |--------------------|----------------------------|
Feel like I?ve been here before Feel like I?ve been here before

C#5
E |--------------------|---------------------|
B |--------------------|---------------------|
G |-10---------------8-|-10--------6-------8-|
D |-10---------------8-|-10--------6-------8-|
A |-8----------------6-|-8---------4-------6-|
E |--------------------|---------------------|
Feel like I've been here before Feel like I've been here before

Проигрыш-1.

Проигрыш-4:

E |-------------------------------8----8-9|8--------------------|
B |--------------------8-9-8-9-11---11----|--11-9-8-9-8---------|
G |----------8-10-8-10--------------------|-------------10-8----|
D |-11-10-11------------------------------|------------------10-|
A |---------------------------------------|---------------------|
E |---------------------------------------|---------------------|

E |-------------------------------8----8-9|8--------------------|
B |--------------------8-9-8-9-11---11----|--11-9-8-9-8---------|
G |----------8-10-8-10--------------------|-------------10-8----|
D |-11-10-11------------------------------|------------------10-|
A |---------------------------------------|---------------------|
E |---------------------------------------|---------------------|

Проигрыш-5:

E |--------------------------|---------------------------------|
B |--------------------------|---------------------------------|
G |-6-6-6-6-6-6-6-6---6-6-8--|--6-6-6-6---6---6-6---6---6-6-8--|
D |-6-6-6-6-6-6-6-6---6-6-8--|--6-6-6-6---6---6-6---6---6-6-8--|
A |--------------------------|---------------------------------|
E |--------------------------|---------------------------------|

E |----------------------------------|
B |----------------------------------|
G |-10-10-10-10-10-10-10-10-10-10-13-| 2X
D |-10-10-10-10-10-10-10-10-10-10-13-|
A |----------------------------------|
E |----------------------------------|

E |-----------------------------------|
B |-----------------------------------|
G |--6-6-6-6----6---6-6---6----6-6-8--| 2X
D |--6-6-6-6----6---6-6---6----6-6-8--|
A |-----------------------------------|
E |-----------------------------------|

E |----------------------------|-----------------------------|
B |-9--9--9--9--8-8-8-8-8-9--8-|-9--9--9--9--8-9--8-8-8----8-|
G |-8--8--8--8--8-8-8-8-8-8--8-|-8--8--8--8--8-8--8-8-8-10-8-|
D |-10-10-10-10-8-8-8-8-8-10-8-|-10-10-10-10-8-10-8-8-8-8--8-|
A |----------------------------|-----------------------------|
E |----------------------------|-----------------------------|

Проигрыш-3. Повторить два раза.

Куплет 2: (под те же аккорды)

Ever had a conversation
That you realise you?ve had before
Isn?t it strange

Have you ever talked to someone
And you feel you know what?s coming next
It feels pre-arranged

?Cause you know that you?ve heard it before
And you feel that this moment in time is for surreal
?Cause you know when you feel deja vu

Проигрыш-2.

Припев.

Проигрыш-1.
Проигрыш-3. (Два раза).

Да, еще есть соло перед вторым куплетом,

На мой взгляд, там три чередующихся такта:

E |-5-4---2-5-4-5-4-2-|-5-4-0-2-5-4-5-4-2-|-5-4---2-5-4-5--4----|
B |-----5-------------|-------------------|-----5-------------5-|
G |-------------------|-------------------|---------------------|


Добавить новый гитарный бой
Дата: 28-09-2016, 21:29, Добавил: Aurondel, Раздел: Иностранные
Информация
Посетители, находящиеся в группе Гости, не могут оставлять комментарии к данной публикации.



Популярные песни
  • Титаник
  • Пираты карибского моря
  • Нежный голос тишины
  • Ламбада
  • Все бабы суки бабы бляди
  • Там на суку
  • Фактор 2 - Шалава
  • Над старым аулом
  • Песни к 8 марта: Необыкновенная
  • Константин Куклин - Асфадель


  • Облако тегов
    , 8 марта, Ария, Армия, би-2, блядь, Валерий Скутин, Война, Грусть, Дворовые, ддт, Звери, Измена, Иностранные, интересное, Кино, КиШ, Красиво, Кузя, лагерное, лагерь, Лирика, Любовь, Любэ, ляпис трубецкой, Многоточие, Наутилус Помпилиус, о жизни, песни, песня, под гитару, Приколы, Разное, Расставание, Сектор газа, Слезы, Сплин, У костра, Чиж и Ко, Школа

    Показать все теги