Войти
Навигация

Наша группа

0-9  A-Z  А  Б  В  Г  Д  Е  Ж  З  И  К  Л  М  Н  О  П  Р  С  Т  У  Ф  Х  Ц  Ч  Ш  Щ  Ю  Я 

Аккорды к песне Iron Maiden - Fear Of The Dark (2 вариант)

Просмотров: 220, Комментариев: 0
 (голосов: 0)




Транспонировать:
Intro (w/distortion)

E |-------------------------------|-----------------------------|
B |-------------------------------|--------------5-5---------5--|
G |7-----7-7-9-9-10-10-9-9-7-7-9-9|5-----5-5-7-7-----7-7-5-5---5|
D |--7-7--------------------------|--5-5------------------------|
A |-------------------------------|-----------------------------|
E |-------------------------------|-----------------------------|
(twice)

E |-----------------------------|-------------------------------|
B |-----------------------------|-------------------------------|
G |-----------------------------|----------------4-4---------4--|
D |77----77-99-10-10-9-9-7-7-9-9|5-5-----5-5-7-7-----7-7-5-5---5|
A |---77------------------------|----5-5------------------------|
E |-----------------------------|-------------------------------|

E |-----------------------------|-------------------------------|
B |-----------------------------|-------------------------------|
G |-----------------------------|----------------2-2---------2--|
D |77----77-99-10-10-9-9-7-7-9-9|3-3-----3-3-5-5-----5-5-3-3---3|
A |---77------------------------|----3-3------------------------|
E |-----------------------------|-------------------------------|

The chord in the Verse are: D Bb C

The chords are played in the following form:

(for example C:)

E |-------------------|
B |----5---5---5---5--|
G |------5---5---5----|
D |--3----------------|
A |-------------------|
E |-------------------|

Lead guitar (accoustic)

D Bb C Bb C D Bb C
E |---------------------------------------------------------|
B |--------8--------------------------------------8---------|
G |--7-9-10-10-9--------------------10-7---7-9-10---10-9----|
D |-7------------10---10----8-10-10------7---------------10-|
A |----------------10----10---------------------------------|
E |---------------------------------------------------------|
(twice)

D Bb C Bb C D
__I am a man who walks alone, and when I`m walking a dark road
Bb C Bb C D
at night or strolling through the park
Bb C
When the lights begin to change,
F G D
I sometimes feel a little strange
Bb C
a little anxious when it`s dark

C Bb C D C
___ Fear of the dark ,____ Fear of the dark,____
Bb F G D
I have a constant fear that something`s always near
Bb C D C
Fear of the dark, ____ Fear of the dark, ____
Bb F G D
I have a phobia that someone`s always there

Chorus: (w/distortion)

E |---------------------------------|---------------------------|
B |---------------------------------|---------------------------|
G |---------------------------------|---------------------------|
D |-----7-7-5-5-7-7-----7-7-5-5-7-7-|-----------------5-5-------|
A |-5-5-------------5-5-------------|-----5-5-7-7-8-8-----8-8-7-|
E |---------------------------------|-5-5-----------------------|



Verse

The verse has the same chords that the part above, but they`re
played with distortion. Hear very carefully the song so you can
catch the rhythm.

Here are the lyrics:

Have you run your fingers down the wall
And have you felt your neck skin crawl
When you`re searching for the light
Sometimes when you`re scared to take a look
At the corner of the room
You`ve sensed that something`s watching you

Solo:

(The easy part)

E |---------------------------------------------|
B |---------------------------------------------|
G |-7--7-7-9-10-9~-10-9-7--7--------------------|
D |--------------------------10-8--8-7-5-7^-7~--|
A |---------------------------------------------|
E |---------------------------------------------|

E |---------------------------------------------|
B |---------------------------------------------|
G |-7--7-7-9-10-9~-10-9-7--7----------5-7~------|
D |--------------------------10-8-7-5-----------|
A |---------------------------------------------|
E |---------------------------------------------|

E |------------------------------------------------------|
B |---------------8---------------8----------------------|
G |---7~---7-9-10---10-9---7-9-10---10-9--7--------------|
D |-7----7---------------7------------------10-7-7^-7~---|
A |------------------------------------------------------|
E |------------------------------------------------------|

E |------------------------------------------------------|
B |---------------8---------------8--------------10^-10~-|
G |---7~---7-9-10---10-9---7-9-10---10-9--7--------------|
D |-7----7---------------7------------------10-7---------|
A |------------------------------------------------------|
E |------------------------------------------------------|

{Solo-Really-Fast-Difficult-To-Catch}

Solo:

(Again, an easy part)

E |-------------------------------------------------------------|
B |-----10-6-8~-----10-6-8-6------------------------------------|
G |7-7-7-------7-7-7-------------10-7-9~-----10-7-9-5-----7-3-5-|
D |-------------------------8-8-8-------8-8-8--------5-5-5------|
A |-------------------------------------------------------------|
E |-------------------------------------------------------------|

E |---------------------------------------------|
B |---------------------------------------------|
G |-------10-7-9-------7----7-5---5-7---7-5---5-|
D |-7-7-7--------10-7--7--7-----7-----7-----7---|
A |---------------------------------------------|
E |---------------------------------------------|

Then, comes the Chorus again, the last verse, and the outro,
that is similar to the Intro, so you can get it easy.
Добавить новый гитарный бой
Дата: 28-09-2016, 20:36, Добавил: Aurondel, Раздел: Иностранные
Информация
Посетители, находящиеся в группе Гости, не могут оставлять комментарии к данной публикации.



Популярные песни
  • Титаник
  • Пираты карибского моря
  • Все бабы суки бабы бляди
  • Над старым аулом
  • Ламбада
  • Солдат (из к/ф Мы из будущего)
  • Мальчишка-наркоман
  • За Родину
  • Девочка не надо слезы лить напрасно
  • Орленок - Звезды


  • Облако тегов
    , 8 марта, Noize MC, Агата Кристи, Ария, Армия, би-2, блядь, Война, Грусть, Дворовые, ддт, Звери, Измена, Иностранные, интересное, Кино, КиШ, Красиво, Кузя, лагерное, лагерь, Лирика, Любовь, Любэ, Мельница, Многоточие, Наутилус Помпилиус, о жизни, песня, под гитару, Приколы, Разное, Расставание, Сектор газа, Слезы, Сплин, У костра, Чиж и Ко, Школа

    Показать все теги