Войти
Навигация

Наша группа

0-9  A-Z  А  Б  В  Г  Д  Е  Ж  З  И  К  Л  М  Н  О  П  Р  С  Т  У  Ф  Х  Ц  Ч  Ш  Щ  Ю  Я 

Аккорды к песне Depeche Mode - Personal Jesus (2 вариант)

Просмотров: 132, Комментариев: 0
 (голосов: 0)




Транспонировать:
E |--------------------------------|-----------------------------|
B |--------------------------------|-----------------------------|
G |--------------------------------|-----------------------------|
D |----------2---------------2-----|-------2--------------2------|
A |--------------------------------|-----------------------------|
E |--0--3-0----3-0--0--3--0----3-0-|--3-0----3-0--0--3--0----3-0-|

E |-----------------------------|
B |-----------------------------|
G |-----------------------------|
D |-------2--------------2------|
A |-----------------------------|
E |--3-0----3-0--0--3--0----3-0-|

E |------------------------------|-----------------------------|
B |------------------------------|-----------------------------|
G |------------------------------|-----------------------------|
D |--------2---------------2-----|-------2--------------2------|
A |------------------------------|-----------------------------|
E |---3-0----3-0--0--3--0----3-0-|--3-0----3-0--0--3--0----3-0-|

E |-----------------------------|
B |-----------------------------|
G |-----------------------------|
D |-------2--------------2------|
A |-----------------------------|
E |--3-0----3-0--0--3--0----3-0-|
Your own personal Jesus
E |------------------------------|-----------------------------|
B |------------------------------|-----------------------------|
G |------------------------------|--------2--------------------|
D |--------2---------------2-----|-----------------------------|
A |------------------------------|-0-3-0----3-0--2-2-2--0-0-0--|
E |---3-0----3-0--0--3--0----3-0-|---------------3-3-3--2-2-2--|

E |-------------------------------|
B |-------------------------------|
G |-------------------------------|
D |---------2--------------2------|
A |-------------------------------|
E |-0--3-0----3-0--0--3--0----3-0-|
someone to hear your prayers Your own personal
someone who cares
E |------------------------------|-----------------------------|
B |------------------------------|-----------------------------|
G |------------------------------|-----------------------------|
D |--------2---------------2-----|-------2--------------2------|
A |------------------------------|-----------------------------|
E |---3-0----3-0--0--3--0----3-0-|--3-0----3-0--0--3--0----3-0-|

E |-----------------------------|
B |-----------------------------|
G |--------2--------------------|
D |-----------------------------|
A |-0-3-0----3-0--2-2-2--0-0-0--|
E |---------------3-3-3--2-2-2--|
Jesus someone to hear your prayers
someoone who's there
E |------------------------------|-----------------------------|
B |------------------------------|-----------------------------|
G |------------------------------|-----------------------------|
D |---------2---------------2----|-------2--------------2------|
A |------------------------------|-----------------------------|
E |-0--3-0----3-0--0--3--0---3-0-|--3-0----3-0--0--3--0----3-0-|

E |-----------------------------|
B |-----------------------------|
G |-----------------------------|
D |-------2--------------2------|
A |-----------------------------|
E |--3-0----3-0--0--3--0----3-0-|
Feeling unknown
and you're
all alone

E |-------------------------|-2--2-----2--------2--------2-|
B |-------------------------|-3--3-----3--------3--------3-|
G |-----------------------0-|-2--------2--------2--------2-|
D |--0--0---0--0---0--0---0-|-0-----------------0----------|
A |--2--2---2--2---2--2---2-|------------------------------|
E |--3--3---3--3---3--3-----|------------------------------|

E |-----0------------0------|
B |-----1------------1------|
G |-----2------------2------|
D |-----2------------2------|
A |-------------------------|
E |-------------------------|
Flesh and bone by the telephone lift up the reciever I'll make you a
Believer

E |------------------------------|-----------------------------|
B |------------------------------|-----------------------------|
G |------------------------------|-----------------------------|
D |---------2---------------2----|-------2--------------2------|
A |------------------------------|-----------------------------|
E |-0--3-0----3-0--0--3--0---3-0-|--3-0----3-0--0--3--0----3-0-|
Take second best put
me to the test
E |-------------------------|-2--2-----2--------2--------2-|
B |-------------------------|-3--3-----3--------3--------3-|
G |-----------------------0-|-2--------2--------2--------2-|
D |--0--0---0--0---0--0---0-|-0-----------------0----------|
A |--2--2---2--2---2--2---2-|------------------------------|
E |--3--3---3--3---3--3-----|------------------------------|

E |-----0------------0------|
B |-----1------------1------|
G |-----2------------2------|
D |-----2------------2------|
A |-------------------------|
E |-------------------------|
Things on your chest I will deliver you know I'm a forgiver
you need to confess
E |------------------------------|------------0--------------------|
B |------------------------------|-2-2--2--2--2---1--1---1--1---1--|
G |------------------------------|-3-3--3--3--3---2--2---2--2---2--|
D |---------2---------------2----|-4-4--4--4--4---3--3---3--3---3--| (x2)
A |------------------------------|-4-4------------3--3---3--3---3--|
E |-0--3-0----3-0--0--3--0---3-0-|---------------------------------|
Reach out and
touch faith
E |-------------------------------|-----------------------------|
B |-------------------------------|-----------------------------|
G |-------------------------------|-----------------------------|
D |---------2---------------2-----|-------2--------------2------|
A |-------------------------------|-----------------------------|
E |-0--3-0----3-0--0--3--0----3-0-|--3-0----3-0--0--3--0----3-0-|

E |-----------------------------|
B |-----------------------------|
G |-----------------------------|
D |-------2--------------2------|
A |-----------------------------|
E |--3-0----3-0--0--3--0----3-0-|
Your own personal Jesus
E |------------------------------|-----------------------------|
B |------------------------------|-----------------------------|
G |------------------------------|--------2--------------------|
D |--------2---------------2-----|-----------------------------|
A |------------------------------|-0-3-0----3-0--2-2-2--0-0-0--|
E |---3-0----3-0--0--3--0----3-0-|---------------3-3-3--2-2-2--|

E |-------------------------------|
B |-------------------------------|
G |-------------------------------|
D |---------2--------------2------|
A |-------------------------------|
E |-0--3-0----3-0--0--3--0----3-0-|
Someone to hear your prayers Your own personal
someone who cares
E |------------------------------|-----------------------------|
B |------------------------------|-----------------------------|
G |------------------------------|-----------------------------|
D |--------2---------------2-----|-------2--------------2------|
A |------------------------------|-----------------------------|
E |---3-0----3-0--0--3--0----3-0-|--3-0----3-0--0--3--0----3-0-|

E |-----------------------------|
B |-----------------------------|
G |--------2--------------------|
D |-----------------------------|
A |-0-3-0----3-0--2-2-2--0-0-0--|
E |---------------3-3-3--2-2-2--|
Jesus someone to hear your prayers
someone who there
E |------------------------------|-----------------------------|
B |------------------------------|-----------------------------|
G |------------------------------|-----------------------------|
D |---------2---------------2----|-------2--------------2------|
A |------------------------------|-----------------------------|
E |-0--3-0----3-0--0--3--0---3-0-|--3-0----3-0--0--3--0----3-0-|

E |-----------------------------|
B |-----------------------------|
G |-----------------------------|
D |-------2--------------2------|
A |-----------------------------|
E |--3-0----3-0--0--3--0----3-0-|

E |----------------------------|-----------------------------|
B |----------------------------|-----------------------------|
G |----------------------------|-----------------------------|
D |-------2---------------2----|-------2--------------2------|
A |----------------------------|-----------------------------|
E |--3-0----3-0--0--3--0---3-0-|--3-0----3-0--0--3--0----3-0-|
Feeling unknown and you're
All alone
E |-------------------------|-2--2-----2--------2--------2-|
B |-------------------------|-3--3-----3--------3--------3-|
G |-----------------------0-|-2--------2--------2--------2-|
D |--0--0---0--0---0--0---0-|-0-----------------0----------|
A |--2--2---2--2---2--2---2-|------------------------------|
E |--3--3---3--3---3--3-----|------------------------------|

E |-----0------------0------|
B |-----1------------1------|
G |-----2------------2------|
D |-----2------------2------|
A |-------------------------|
E |-------------------------|
Flesh and bone by the Telephone Lift up the receiver I'll make you a
believer

E |------------------------------|-2------------2---------2--------2----|
B |------------------------------|-3------------3---------3--------3----|
G |------------------------------|-2------------2---------2--------2----|
D |---------2---------------2----|-0----------------------0-------------|
A |------------------------------|--------------------------------------|
E |-0--3-0----3-0--0--3--0---3-0-|--------------------------------------|
I will deliver you know I'm a forgiver

E |------------------------------|------------0--------------------|
B |------------------------------|-2-2--2--2--2---1--1---1--1---1--|
G |------------------------------|-3-3--3--3--3---2--2---2--2---2--|
D |---------2---------------2----|-4-4--4--4--4---3--3---3--3---3--| (x4)
A |------------------------------|-4-4------------3--3---3--3---3--|
E |-0--3-0----3-0--0--3--0---3-0-|---------------------------------|
Reach out and
touch faith
E |------------------------------|------------0--------------------0--|
B |------------------------------|-2-2--2--2--2---1-----1-------0-----|
G |------------------------------|-3-3--3--3--3---2-----2------0------|
D |---------2---------------2----|-4-4--4--4--4---3-----3-----2-------|
A |------------------------------|-4-4------------3-----3----2--------|
E |-0--3-0----3-0--0--3--0---3-0-|------------------------------------|
Reach out and
touch faith
Добавить новый гитарный бой
Дата: 19-09-2016, 11:54, Добавил: Aurondel, Раздел: Иностранные
Информация
Посетители, находящиеся в группе Гости, не могут оставлять комментарии к данной публикации.



Популярные песни
  • Титаник
  • Пираты карибского моря
  • Все бабы суки бабы бляди
  • Над старым аулом
  • Ламбада
  • Солдат (из к/ф Мы из будущего)
  • Мальчишка-наркоман
  • За Родину
  • Орленок - Звезды
  • Девочка не надо слезы лить напрасно


  • Облако тегов
    , 8 марта, Ария, Армия, би-2, блядь, Валерий Скутин, Война, Грусть, Дворовые, ддт, Звери, Измена, Иностранные, интересное, Кино, КиШ, Красиво, Кузя, лагерное, лагерные песни, лагерь, Лирика, Любовь, Любэ, ляпис трубецкой, Многоточие, Наутилус Помпилиус, о жизни, песня, под гитару, Приколы, Разное, Расставание, Сектор газа, Слезы, Сплин, У костра, Чиж и Ко, Школа

    Показать все теги