Войти
Навигация

Наша группа

0-9  A-Z  А  Б  В  Г  Д  Е  Ж  З  И  К  Л  М  Н  О  П  Р  С  Т  У  Ф  Х  Ц  Ч  Ш  Щ  Ю  Я 

Аккорды к песне Oasis - Stand By Me (3 вариант)

Просмотров: 277, Комментариев: 0
 (голосов: 0)




Транспонировать:
Intro
=====

e--------------------------------------------------
B--------------------------------------------------
G--------------------------------------------------
D--------------------------------------------------
A--------------------------------------------------
E--12~~/-3~~~~~~~~~~~~~~-(amplifier feedback here)-

G B7add11 C C/B D G
e------------------------------------------------------------------------------
B------------------------------------------------------------------------------
G----------------------------12--14--14b16r-14b16r14--12h14--12--12~~~~12--12--
D----------------------12h14---------------------------------------------------
A------------------------------------------------------------------------------
E------------------------------------------------------------------------------

B7add11 C C/B D
e------------------------------------------------------------------------------
B------------------------------------------------------------------------------
G--11----------12----12~~---------12h14-12--14bbb16---14b16r14--12h14--12-12~>-
D--------12h14----14--------12h14----------------------------------------------
A------------------------------------------------------------------------------
E------------------------------------------------------------------------------

Verse 1
-------
G B7add11 C
Made a meal and threw it up on Sunday I've
C/B D
Got a lot of things to learn
G B7add11
Said I would and I'll be leaving one day
C C/B D
Before my heart starts to burn


Pre-Chorus:
-----------

C D
So what's the matter with you
e---------------------------------------------------------------------------
B---------------------------------------------------------------------------
G-14>-----------------------------------------------------------------------
D--x-------------------------------5--7-------------------------------------
A-12>--0--2--3----------------5s7--------5----------------------------------
E---------------------------------------------------------------------------

G D/F# Em
Sing me something new don't you know
e---------------------------------------------------------------------------
B---------------------------------------------------------------------------
G---------------------------------------------------------------------------
D-----5---------------------------------------------------------------------
A-5h7-----------------------------------------------------------------------
E--------3----------2---------0---------------------------------------------

A C
The cold and wind and rain don't know They only seem to come
e---------------------------------------------------------------------------
B---------------------------------------------------------------------------
G---------------------------------------------------------------------------
D---------------------------------------------------------------------------
A-----0-------------------------------2--3----------------------------------
E---------------------------------------------------------------------------

D
and go away
e---------------------------------------------------------------------------
B---------------------------------------------------------------------------
G---------------------------------------------------------------0--0h2--0---
D----------------------------------------------------------0h2--------------
A-----------5---------------------------------------------------------------
E---------------------------------------------------------------------------


Verse 2
-------
Times are hard when things ain't got no meaning
I've found a key upon the floor
e-----------------------------------------------------------------------------
B-----------------------------------------------------------------------------
G--------------------------------------12h14--12--14b16r14--12h14--12--12~~~>-
D-------------------------------12h14-----------------------------------------
A-----------------------------------------------------------------------------
E-----------------------------------------------------------------------------
Maybe you and I will not believe in
The things we find behind the door

Pre-Chorus (Guitars 1 and 2 play the same thing as previous pre-chorus)
----------
So what's the matter with you
Sing me something new
Don't you know the cold and wind and rain don't know
They only seem to come and go away
e-------------------------------------------------------------------------
B-------------------------------------------------------------------------
G---------------------------------------12h14-12----12-----14b16r14-12----
D---------------------------------12h14----------14--------------------14-
A-------------------------------------------------------------------------
E-------------------------------------------------------------------------

( G)
e----------------------------
B----------------------------
G-14b16r14-12----12~~~~~-----
D-------------14-------------
A----------------------------
E----------------------------


Chorus
------
G D Am
Stand by me, nobody knows
e---------------------------------------
B---------------------------------------
G--------------14b16r14-12--14~~b16--12-
D---------------------------------------
A---------------------------------------
E---------------------------------------

C F D/F# G
the way it's gonna be
e-------------------------------------------
B-------------------------------------------
G-------------------------------------------
D-------------------------------------------
A----------------------3-x-x----------------
E----------------------------1-x-x-2-x-x-3--

G D Am
Stand by me, nobody knows
e---------------------------------------
B---------------------------------------
G--------------14b16r14-12--14~~b16--12-
D---------------------------------------
A---------------------------------------
E---------------------------------------

C F D/F# G
the way it's gonna be
e-------------------------------------------
B-------------------------------------------
G-------------------------------------------
D-------------------------------------------
A----------------------3-x-x----------------
E----------------------------1-x-x-2-x-x-3--

G D Am
Stand by me, nobody knows
e---------------------------------------
B---------------------------------------
G--------------14b16r14-12--14~~b16--12-
D---------------------------------------
A---------------------------------------
E---------------------------------------

C F D/F# G
the way it's gonna be
e-------------------------------------------
B-------------------------------------------
G-------------------------------------------
D-------------------------------------------
A----------------------3-x-x----------------
E----------------------------1-x-x-2-x-x-3--

G D Am
Stand by me, nobody knows Yeah
e-------------------------------------------------------------------
B-------------------------------------------------------------------
G-------12-11--14b16r14-12--14~~b16--12--14b16r14-12--14~~b16--12---
D-12h14-------------------------------------------------------------
A-------------------------------------------------------------------
E-------------------------------------------------------------------

C D G
Nobody knows The way it's gonna be
e--------------------------------------------------------------------
B--------------------------------------------------------------------
G-14b16r14-12--14~~b16--12--12---12--12/11--11/9--9/7--7--------0----
D---------------------------------------------------------------0----
A--------------------------------------------------------------------
E--------------------------------------------------------------------

(G)
(If you're...)
e-------------------------
B-------------------------
G----------0--------------
D-------0-----------------
A--2h3--------3--2--0-----
E----------------------3--

Verse 3
-------
If you're leaving will you take me with you
I'm tired of talking on my phone
e---------------------------------------------------------------------------
B---------------------------------------------------------------------------
G-----------------------------------------------12--14b16r14-12------12~~~>-
D---------------------------------------12--14-------------------14---------
A------------------------------10-12/14-------------------------------------
E---------------------------------------------------------------------------
There is one thing I can never give you
My heart will never be your home
e----------------------------------------------------
B----------------------------------------------------
G-------------------------------14b16-----b16r14--12-
D----------------------------------------------------
A----------------------------------------------------
E----------------------------------------------------
C D
So what's the matter with you
e-----------------------------------
B-----------------------------------
G-12~~~~~~~~~~~-----12--12--12h14---
D-----------------------------------
A-----------------------------------
E-----------------------------------
Sing me something new
Don't you know the cold and wind and rain don't know
They only seem to
come and go away G
e---------------------------------------------------------------------------
B-------------------------------------------------------------12------------
G----------------------12--14---12----12----------12----------------12------
D---------------12h14--------------14-------12h14-------12h14----12---------
A---------------------------------------------------------------------------
E---------------------------------------------------------------------------

Chorus
------
G D Am
Stand by me, nobody knows
e---------------------------------------
B---------------------------------------
G--------------14b16r14-12--14~~b16--12-
D---------------------------------------
A---------------------------------------
E---------------------------------------

C F D/F# G
the way it's gonna be
e-------------------------------------------
B-------------------------------------------
G-------------------------------------------
D-------------------------------------------
A----------------------3-x-x----------------
E----------------------------1-x-x-2-x-x-3--

G D Am
Stand by me, nobody knows
e---------------------------------------
B---------------------------------------
G--------------14b16r14-12--14~~b16--12-
D---------------------------------------
A---------------------------------------
E---------------------------------------

C F D/F# G
the way it's gonna be
e-------------------------------------------
B-------------------------------------------
G-------------------------------------------
D-------------------------------------------
A----------------------3-x-x----------------
E----------------------------1-x-x-2-x-x-3--

G D Am
Stand by me, nobody knows
e---------------------------------------
B---------------------------------------
G--------------14b16r14-12--14~~b16--12-
D---------------------------------------
A---------------------------------------
E---------------------------------------

C F D/F# G
the way it's gonna be
e-------------------------------------------
B-------------------------------------------
G-------------------------------------------
D-------------------------------------------
A----------------------3-x-x----------------
E----------------------------1-x-x-2-x-x-3--

G D Am
Stand by me, nobody knows Yeah
e-------------------------------------------------------------------
B-------------------------------------------------------------------
G-------12-11--14b16r14-12--14~~b16--12--14b16r14-12--14~~b16--12---
D-12h14-------------------------------------------------------------
A-------------------------------------------------------------------
E-------------------------------------------------------------------

C D (Em)
Nobody knows The way it's gonna be
e---------------------------------------------------------
B---------------------------------------------------------
G-14b16r14-12--14~~b16--12--12---12--12/11--11/9--9/7--7--
D---------------------------------------------------------
A---------------------------------------------------------
E---------------------------------------------------------

Bridge/Guitar Solo:
-------------------

Em D C
The way it's gonna be
e-------------------------------------------------------
B-------------------------------------------------------
G----11h12--11------------------------------------------
D---------------14--12--12h14--12--12-------------------
A-------------------------------------------------------
E-------------------------------------------------------
Em D C
Baby, I can see
e-------------------------------------------------------------
B-------------------------------------------------------------
G-11h12--11----------------11--12----14b16r14-12-14b16r14-12--
D------------14--12----12-------------------------------------
A-------------------------------------------------------------
E-------------------------------------------------------------

Em D C
And don't you know the
e-------------------------------------------------------------
B-----------------------------------------faint:--------------
G-11h12--11------------------------12--12--------12-------12--
D------------14--12--12h14--12--14---------12h14----12h14-----
A-------------------------------------------------------------
E-------------------------------------------------------------

cold and wind and rain don't know
They only seem to come and go away (G)
e---------------------------------------------------------------------------
B---------------------------------------------------------------------------
G-----------------------------12-12/11-11/9-9/7-7/5-5/4-4/2-2p0-0-2-2bbb4---
D---------------------------------------------------------------------------
A---------------------------------------------------------------------------
E---------------------------------------------------------------------------


Final Chorus
------------

G D Am
Stand by me, nobody knows
e------------------------------------------
B------------------------------------------
G-------12--14---14b16r14--12--14~~b16-12--
D-12h14------------------------------------
A------------------------------------------
E------------------------------------------

C F D/F# G
the way it's gonna be
e-------------------------------------------------------------
B-------------------------------------------------------------
G-------------------14b16r14-12----12-14b16r14-12----12--12---
D-------------------------------14----------------14----------
A-------------------------------------------------------------
E-------------------------------------------------------------

G D Am
Stand by me, nobody knows
e------------------------------------------
B------------------------------------------
G-------12--14---14b16r14--12--14~~b16-12--
D-12h14------------------------------------
A------------------------------------------
E------------------------------------------

C F D/F# G
the way it's gonna be
e-------------------------------------------------------------
B-------------------------------------------------------------
G-------------------14b16r14-12----12-14b16r14-12----12--12---
D-------------------------------14----------------14----------
A-------------------------------------------------------------
E-------------------------------------------------------------

G D Am
Stand by me, nobody knows
e------------------------------------------
B------------------------------------------
G-------12--14---14b16r14--12--14~~b16-12--
D-12h14------------------------------------
A------------------------------------------
E------------------------------------------

C F D/F# G
the way it's gonna be
e-------------------------------------------------------------
B-------------------------------------------------------------
G-------------------14b16r14-12----12-14b16r14-12----12--12---
D-------------------------------14----------------14----------
A-------------------------------------------------------------
E-------------------------------------------------------------

G D Am
Stand by me, nobody knows Yeah
e-------------------------------------------------------------------
B-------------------------------------------------------------------
G-------12-11--14b16r14-12--14~~b16--12--14b16r14-12--14~~b16--12---
D-12h14-------------------------------------------------------------
A-------------------------------------------------------------------
E-------------------------------------------------------------------

C D G
God only knows The way it's gonna be
e---------------------------------------------------------------------------3-
B--------------------------------------------------------------------1p0--0---
G----------12--12/11--11/9--9/7--7/5--5/4--4/2--2p0--0--2--2bbbbb4------------
D[/-----------------------------------------------------------------------------
A-----------------------------------------------------------------------------
E-----------------------------------------------------------------------------
Добавить новый гитарный бой
Дата: 7-05-2016, 11:41, Добавил: Aurondel, Раздел: Иностранные
Информация
Посетители, находящиеся в группе Гости, не могут оставлять комментарии к данной публикации.



Популярные песни
  • Титаник
  • Пираты карибского моря
  • Все бабы суки бабы бляди
  • Над старым аулом
  • Ламбада
  • Солдат (из к/ф Мы из будущего)
  • Мальчишка-наркоман
  • За Родину
  • Девочка не надо слезы лить напрасно
  • Орленок - Звезды


  • Облако тегов
    , 8 марта, Ария, Армия, би-2, блядь, Война, Грусть, Дворовые, ддт, Звери, Измена, Иностранные, интересное, Кино, КиШ, Красиво, красивые мелодии, Кузя, лагерное, лагерь, Лирика, Любовь, Любэ, Многоточие, Наутилус Помпилиус, о жизни, песни, песня, под гитару, Приколы, прикольное, Разное, Расставание, Сектор газа, Слезы, Сплин, У костра, Чиж и Ко, Школа

    Показать все теги