Войти
Навигация

Наша группа

0-9  A-Z  А  Б  В  Г  Д  Е  Ж  З  И  К  Л  М  Н  О  П  Р  С  Т  У  Ф  Х  Ц  Ч  Ш  Щ  Ю  Я 

Аккорды к песне Oasis - Rock 'N' Roll Star (2 вариант)

Просмотров: 264, Комментариев: 0
 (голосов: 0)




Транспонировать:
B
e-------------------------------------------------------------------
B--4--4--4-4-4-4--4-4--10----9--7-----4--4-4-4-4-4-4--10-----9--7---
G--4--4--4-4-4-4--4-4---9b10-9--7-----4--4-4-4-4-4-4---9b10--9--7---
D--4--4--4-4-4-4--4-4--------------9--4--4-4-4-4-4-4----------------
A--2--2--0-2-0-2--0-2-----------------2--0-2-0-2-0-2----------------
E-------------------------------------------------------------------

Verse 1
-------
[NOTE: all "B"'s below played with "main riff"]
B
I live my life in the city
B
There's no easy way out
C#m A B
The day's moving just too fast for me
B
Need some time in the sunshee-ine
B
Gotta slow it right down
C#m A B
The day's moving just too fast for me


Pre-chorus
----------
G#m E
I live my life for the stars that shine
B
And people say it's just a waste of time
G#m E
Then they said I should feed my head
B
But that to me was just a day in bed
G#m E
I'll take my car and drive real far
B
To where they're not concerned about the way we are
A
Cos in my mind my dreams are real
F#
Are you concerned about the way I feel


Chorus
------
A E B (w/ main riff)
Toniiiiiiiiiiiiiiiiight I'm a rock n' roll star
e--5---5--------------0-----
B--5---5--------------0-----
G--6---6--------------1-----
D--7---7-----------2--2-----
A--7---7-----------2--2-----
E--5---5---3b4-----0--0-----



Bridge
------
A E ?
You're not down with who I am look at you now you're all in my hands
e------------0--------------------------3-----
B------------0--------------------------3-----
G------------1--------------------------1-----
D------------2--------------------------------
A------------2--------------------------------
E----3---2---0--------------------------------
B (w/main riff) [NOTE: I have no idea what
Tonight! that "?" chord is, or if
it's correct!]

[SOLO over chords B C#m A B]


[VERSE 1 repeat]
[Pre-chorus repeat]
[Chorus repeat]
Добавить новый гитарный бой
Дата: 19-04-2016, 12:43, Добавил: Aurondel, Раздел: Иностранные
Информация
Посетители, находящиеся в группе Гости, не могут оставлять комментарии к данной публикации.



Популярные песни
  • Титаник
  • Пираты карибского моря
  • Все бабы суки бабы бляди
  • Над старым аулом
  • Ламбада
  • Солдат (из к/ф Мы из будущего)
  • Мальчишка-наркоман
  • За Родину
  • Девочка не надо слезы лить напрасно
  • Орленок - Звезды


  • Облако тегов
    , 8 марта, Noize MC, Агата Кристи, Ария, Армия, би-2, блядь, Война, Грусть, Дворовые, ддт, Звери, Измена, Иностранные, интересное, Кино, КиШ, Красиво, Кузя, лагерное, лагерь, Лирика, Любовь, Любэ, Мельница, Многоточие, Наутилус Помпилиус, о жизни, песня, под гитару, Приколы, Разное, Расставание, Сектор газа, Слезы, Сплин, У костра, Чиж и Ко, Школа

    Показать все теги