Войти
Навигация

Наша группа

0-9  A-Z  А  Б  В  Г  Д  Е  Ж  З  И  К  Л  М  Н  О  П  Р  С  Т  У  Ф  Х  Ц  Ч  Ш  Щ  Ю  Я 

Аккорды к песне ЧайФ - У взморья

Просмотров: 583, Комментариев: 0
 (голосов: 0)




Транспонировать:
Intro:

2nd Guitar
E |--3---3---3---3---3---3---3---3---2---2---2--2---3---3---5---5
B |5---5---5---5---5---5---5---5---4---4---4---4--5---5---7---7--
G |--------------------------------------------------------------
D |--------------------------------------------------------------
A |--------------------------------------------------------------
E |--------------------------------------------------------------

Em H7 Em H7 Em H7
E |--------|-^7-|--------|-^7-----^7|-12-12-12-12|-^7-----------|
B |-^12----|----|-^12----|----^12---|------------|----12-12-10-8|
G |-----^12|----|-----^12|----------|------------|--------------|
D |--------|----|--------|----------|------------|--------------|
A |--------|----|--------|----------|------------|--------------|
E |--------|----|--------|----------|------------|--------------|

Em H7
------------|--------
-12---------|-------- *Примечание: ^ - флажолет
--9-11h12p11|-9-7----
h - hammer
------------|-----9-- p - pool
------------|--------
------------|--------

Bass for intro:

Em H7 Em H7 Em H7 Em H7
G |----|-----------|-----|------|----|----------|----|----------|
D |----|-----------|-----|------|----|----------|----|----------|
A |----|-2-2---0h2-|-----|-2-0--|----|-2-2---0h2|----|-2---2----|
E |-0-3|-----3-----|-0-3-|-----3|-0-3|-----3----|-0-3|----------|

Coda:

2nd Guitar
Em H7
E -3-3-2-3|-5-5-3-2-3-----|
B -5-5-4-5|-7-7-5-4-5-----|
G --------|---------------|
D --------|---------------|
A --------|---------------|
E --------|---------------|

Em H7
Я купил в ларьке "Советскую культуру",
Em H7
Я три дня не называл тебя дурой.
A H7 Em H7
У-у, наверно, я стал лучше.

Я наконец пробрил свою морду.
Разучил два новых заковыристых аккорда.
У-у, наверно, я стал круче.

Вместо детских снов - грязные обрывки.
По утрам я здесь ел взбитые сливки.
У-у, наверно, я стал сытым.

Вчера я поздно лег, сегодня поздно встал.
Я начал быстро уставать когда слушаю металл.
У-у, наверно, я стал старше.

Я слышал, как шумят фруктовые сады.
Я две недели подряд лежу у воды.
У-у, наверно, я стал чище.

У-у, неужто, я стал лучше.
У-у, неужто, я стал старше.
У-у, неужто, я стал круче.
У-у, неужто, я стал сытым.
У-у, неужто, я встал.
Добавить новый гитарный бой
Дата: 19-11-2014, 02:50, Добавил: au121, Раздел: ЧайФ
Информация
Посетители, находящиеся в группе Гости, не могут оставлять комментарии к данной публикации.



Популярные песни
  • Титаник
  • Пираты карибского моря
  • Все бабы суки бабы бляди
  • Над старым аулом
  • Ламбада
  • Солдат (из к/ф Мы из будущего)
  • Мальчишка-наркоман
  • За Родину
  • Девочка не надо слезы лить напрасно
  • Орленок - Звезды


  • Облако тегов
    , 8 марта, Ария, Армия, би-2, блядь, Бутусов, Война, Грусть, Дворовые, ддт, Жуки, Звери, Измена, Иностранные, интересное, Кино, КиШ, Красиво, Кузя, лагерное, лагерь, Лирика, Любовь, Любэ, Многоточие, Наутилус Помпилиус, о жизни, песня, Петлюра, под гитару, Приколы, Разное, Расставание, Сектор газа, Слезы, Сплин, У костра, Чиж и Ко, Школа

    Показать все теги