Войти
Навигация

Наша группа

0-9  A-Z  А  Б  В  Г  Д  Е  Ж  З  И  К  Л  М  Н  О  П  Р  С  Т  У  Ф  Х  Ц  Ч  Ш  Щ  Ю  Я 

Аккорды к песне Тальков Игорь - Чистые пруды (3 вариант)

Просмотров: 841, Комментариев: 0
 (голосов: 0)




Транспонировать:
Проигрыш:
E |--1-0-1---------0--1-0-1--------0--1-0-0----------------|
B |------------3----------------3-----------3-3--2-2-------|
G |--------2--2-------------3--3-----------------------3-3-|
D |--------------------------------------------------------|
A |--------------------------------------------------------|
E |--------------------------------------------------------|

E |------------5--5-6-8--10-8-6-5-6----3--0--8-6------6-5-|
B |---------------------------------3-----------2---------|
G |-2-3-5-3-2--------------------------------------2------|
D |-------------------------------------------------------|
A |-------------------------------------------------------|
E |-------------------------------------------------------|

E |----3-1---0-1---|
B |-3-----2------3-|
G |----------------|
D |----------------|
A |----------------|
E |----------------|

Dm A7
У каждого из нас на свете есть места
A7 Dm
Куда приходим мы на миг уединиться
Gm Dm
Где память как строка почтового листа
Gm Dm A7
Нам сердце исцелит, когда оно томится

Припев:
Dm Gm
Чистые пруды, застенчивые ивы
C7 F A7
Как девчонки смолкли у воды
Dm Gm
Чистые пруды, веков зеленый сон
A7 Dm
Мой дальний берег детства, где звучит аккордеон...Проигрыш.

И я спешу туда, там льется добрый свет
И лодки на воде, как солнечные пятна
Отсюда мы с тобой ушли в круженье лет
И вот я снова здесь, и ты придешь обратно

Припев.

Однажды ты пройдешь Бульварное кольцо
И в памяти твоей мы встретимся наверно
И воды отразят знакомое лицо
И душу исцелят и успокоят нервы

Припев.

У каждого из нас на свете есть места
Что нам за далью лет все ближе, все дороже
Там дышится легко, там мира чистота
Нас сделают на миг счастливей и моложе.
Добавить новый гитарный бой
Дата: 19-11-2014, 02:35, Добавил: au121, Раздел: Тальков Игорь
Информация
Посетители, находящиеся в группе Гости, не могут оставлять комментарии к данной публикации.



Популярные песни
  • Титаник
  • Пираты карибского моря
  • Все бабы суки бабы бляди
  • Над старым аулом
  • Ламбада
  • Солдат (из к/ф Мы из будущего)
  • Мальчишка-наркоман
  • За Родину
  • Девочка не надо слезы лить напрасно
  • Орленок - Звезды


  • Облако тегов
    , 8 марта, Ария, Армия, би-2, блядь, Война, гитарное, Гражданская оборона, Грусть, Дворовые, ддт, Звери, Измена, Иностранные, интересное, Кино, КиШ, Красиво, Кузя, лагерное, лагерь, Лирика, Любовь, Любэ, ляпис, Многоточие, Наутилус Помпилиус, о жизни, песня, под гитару, Приколы, Разное, Расставание, Сектор газа, Слезы, Сплин, У костра, Чиж и Ко, Школа

    Показать все теги