Войти
Навигация

Наша группа

0-9  A-Z  А  Б  В  Г  Д  Е  Ж  З  И  К  Л  М  Н  О  П  Р  С  Т  У  Ф  Х  Ц  Ч  Ш  Щ  Ю  Я 

Аккорды к песне Тальков Игорь - Маленький город

Просмотров: 709, Комментариев: 0
 (голосов: 0)




Транспонировать:
Gm Cm/G Gm Cm/G
E||-------6--------6----------|------6--------------|
B||---------------------------|----------------------|
G||--7-------7--8-----8--7--|---------7--8--------|

B/F D7 Gm
-------6--------5---------|----3--------------||
---------------------------|-------------------||
--7-------7--5-----5--3--|-------------------||

Gm Cm/G B/F Cm/Eb
E||-------6--------6----------|------6--------------|
B||---------------------------|----------------------|
G||--7-------7--8-----8--7--|---------7--8--------|

B/D D7 Gm
-------6--------5---------|----3--------------||
---------------------------|-------------------||
--7-------7--5-----5--3--|-------------------||


Am7/5- D7
Вот поезд тронулся,
Gm Am7/5- D7 Gm
И позади остался маленький город,
Ab G7
Смешно конечно, но только в пути
Cm Am7/5- D7
Я пойму, как ты мне был дорог.
B Eb
Ну а пока, скорость набрав,
F7 B
Мой поезд весело мчится,
Eb Cm
Это потом я сорву стоп-кран,
Am7/5- D7 Gm
И сойду, чтоб к нему возвратиться.

Gm
Маленький город, маленький город,
Cm F7
С улицами в три дома,
Bmaj7 Ebmaj7
С шепотом тополей за окном,
Am7/5- D7
До боли родной и знакомый.
Gm
Маленький город, маленький город,
Cm F7
Ты обо мне скучаешь,
Bmaj7 Ebmaj7
И в колыбели ласковых снов
Am7/5- D7
Детство мое качаешь!

Gm Cm/G Gm Cm/G
E||-------6--------6----------|------6--------------|
B||---------------------------|----------------------|
G||--7-------7--8-----8--7--|---------7--8--------|

B/F D7 Gm
-------6--------5---------|----3--------------||
---------------------------|-------------------||
--7-------7--5-----5--3--|-------------------||

Gm Cm/G B/F Cm/Eb
E||-------6--------6----------|------6--------------|
B||---------------------------|----------------------|
G||--7-------7--8-----8--7--|---------7--8--------|

B/D D7 Gm
-------6--------5---------|----3--------------||
---------------------------|-------------------||
--7-------7--5-----5--3--|-------------------||

Am7/5- D7 Gm
В шуме и гаме больших городов
Am7/5- D7 Gm
Я долго буду скитаться,
Ab G7
И ты мне поможешь, как истинный друг,
Cm Am7/5- D7
Не споткнуться, не потеряться,
B Ebmaj7
И под небом далеких стран
F7 B
Долго мне будешь сниться.
Eb
Ну, а потом,
Cm Am7/5-
Я сорву стоп-кран и сойду,
D7 Gm
Чтоб к тебе возвратиться.

Gm
Маленький город, маленький город,
Cm F7
С улицами в три дома,
Bmaj7 Ebmaj7
С шепотом тополей за окном,
Am7/5- D7
До боли родной и знакомый.
Gm
Маленький город, маленький город,
Cm F7
Ты обо мне скучаешь,
Bmaj7 Ebmaj7
И в колыбели ласковых снов
Am7/5- D7
Детство мое качаешь!

Gm Cm/G Gm Cm/G
E||-------6--------6----------|------6--------------|
B||---------------------------|----------------------|
G||--7-------7--8-----8--7--|---------7--8--------|

B/F D7 Gm
-------6--------5---------|----3--------------||
---------------------------|-------------------||
--7-------7--5-----5--3--|-------------------||

Gm Cm/G B/F Cm/Eb
E||-------6--------6----------|------6--------------|
B||---------------------------|----------------------|
G||--7-------7--8-----8--7--|---------7--8--------|

B/D D7 Gm
-------6--------5---------|----3--------------||
---------------------------|-------------------||
--7-------7--5-----5--3--|-------------------||

Am7/5- D7
Вот поезд тронулся,
Gm Am7/5- D7 Gm
И позади остался маленький город,
Ab G7
Смешно конечно, но только в пути
Cm Am7/5- D7
Я пойму, как ты мне был дорог.
B Eb
Ну а пока, скорость набрав,
F7 B
Мой поезд весело мчится,
Eb Cm
Это потом я сорву стоп-кран,
Am7/5- D7 Gm
И сойду, чтоб к нему возвратиться.

Eb Cm
Это потом я сорву стоп-кран,
Am7/5- D7 Gm
И сойду, чтоб к нему возвратиться.

Eb Cm
Да я, конечно, сорву стоп-кран,
Am7/5- D7 Gm
И сойду, чтоб к нему возвратиться.
Добавить новый гитарный бой
Дата: 19-11-2014, 02:34, Добавил: au121, Раздел: Тальков Игорь
Информация
Посетители, находящиеся в группе Гости, не могут оставлять комментарии к данной публикации.



Популярные песни
  • Титаник
  • Пираты карибского моря
  • Все бабы суки бабы бляди
  • Над старым аулом
  • Ламбада
  • Солдат (из к/ф Мы из будущего)
  • Мальчишка-наркоман
  • За Родину
  • Девочка не надо слезы лить напрасно
  • Орленок - Звезды


  • Облако тегов
    , 8 марта, Ария, Армия, би-2, блядь, Война, гитарное, Гражданская оборона, Грусть, Дворовые, ддт, Звери, Измена, Иностранные, интересное, Кино, КиШ, Красиво, Кузя, лагерное, лагерь, Лирика, Любовь, Любэ, ляпис, Многоточие, Наутилус Помпилиус, о жизни, песня, под гитару, Приколы, Разное, Расставание, Сектор газа, Слезы, Сплин, У костра, Чиж и Ко, Школа

    Показать все теги