Войти
Навигация

Наша группа

0-9  A-Z  А  Б  В  Г  Д  Е  Ж  З  И  К  Л  М  Н  О  П  Р  С  Т  У  Ф  Х  Ц  Ч  Ш  Щ  Ю  Я 

Аккорды к песне Приключения Электроников - Все пройдет (2 вариант)

Просмотров: 722, Комментариев: 0
 (голосов: 0)




Транспонировать:
INTRO (2 раза):
E|------------------------------------------------|
B|------------------------------------------------|
G|-5------------------------------5---------------|
D|------5-6----5--6----5--8--6---------5-6----8-5-|
A|------------------------------------------------|
E|------------------------------------------------|

КУПЛЕТ 1:
(перебором)
Am Dm E Am
Вновь о том как день уходит с земли ты негромко спой мне
C G E Am
Этот день быть может где-то вдали мы не однажды вспомним
(по тоникам)
Am Dm E Am
Вспомним как прозрачный месяц плывет над ночной прохладой
Dm C E Am
Лишь о том, что все пройдет вспоминать не надо
(квинтами)
D5 C5 E5 A5
Лишь о том, что все пройдет вспоминать не надо

ПРИПЕВ:
A5 E5 G5 C5
Все пройдет - и печаль и радость
A5 E5 G5 C5
Все пройдет - так устроен свет
A5 E5 G5 C5
Все пройдет, только верить надо,
D5 C5 E5 A5
Что любовь не проходит - нет

INTRO (1 раз)

КУПЛЕТ 2:
Спой о том как вдаль идут корабли не сдаваясь буре
Спой о том, что ради нашей любви весь этот мир придуман
Спой о том как биться не устает сердце с сердцем рядом
Лишь о том, что все пройдет вспоминать не надо | 2 раза

ПРИПЕВ

СОЛО:
E|-----5-------------------------------------------------------|
B|-5/7---7-7-5/7-5---------3-5-3-1---1-------------------------|
G|-----------------2/4-2h4---------3---2b4-2b4-2---------2h4p2-|
D|-----------------------------------------------2h4-2h4-------|
A|-------------------------------------------------------------|
E|-------------------------------------------------------------|

E|-------------------------------------------------------|
B|-------------------------------------------------------|
G|-9-7h9-7h9p7-7-5h7-5h7p5-10-8-10-8---10b12-8--10-8-8---|
D|-----------------------------------10------10-------10-|
A|-------------------------------------------------------|
E|-------------------------------------------------------|

E|---------------------------|
B|---------------------------|
G|-10b12b10---7-9-11-9-7-9-7-|
D|---------10----------------|
A|---------------------------|
E|---------------------------|

E|-------------------------------------------------------------|
B|-------------------------------------------------------------|
G|-5-7-9-7-5-7-5----9--7-----7--9--11b12--9--7--9--7--7--11b12-|
Добавить новый гитарный бой
Дата: 19-11-2014, 01:44, Добавил: au121, Раздел: Приключения Электроников
Информация
Посетители, находящиеся в группе Гости, не могут оставлять комментарии к данной публикации.



Популярные песни
  • Титаник
  • Пираты карибского моря
  • Все бабы суки бабы бляди
  • Над старым аулом
  • Ламбада
  • Солдат (из к/ф Мы из будущего)
  • Мальчишка-наркоман
  • За Родину
  • Девочка не надо слезы лить напрасно
  • Орленок - Звезды


  • Облако тегов
    , 8 марта, Ария, Армия, би-2, блядь, Война, гитарное, Гражданская оборона, Грусть, Дворовые, ддт, Звери, Измена, Иностранные, интересное, Кино, КиШ, Красиво, Кузя, лагерное, лагерь, Лирика, Любовь, Любэ, ляпис, Многоточие, Наутилус Помпилиус, о жизни, песня, под гитару, Приколы, Разное, Расставание, Сектор газа, Слезы, Сплин, У костра, Чиж и Ко, Школа

    Показать все теги