Войти
Навигация

Мини-чат
Написалzhelinscky
23 октября 2016
привет всем заходите на портал гитаристов akkordmovi.com
Написалzhelinscky
23 октября 2016
всем привет заходите на новый портал гитаристов [leech=http://akkordmovi.com]akko
rdmovi.com[/leech]
НаписалВексель
7 августа 2016
Всем привет
НаписалAragorn
4 апреля 2016
привет
НаписалVurf
1 марта 2016
шалом, бездельники!)
НаписалHohner
8 февраля 2016
https://www.youtube.com/watch?v=9
wG5oHsYkvA
НаписалHohner
8 февраля 2016
smile-03
Написалslaveckii77
24 января 2016
slaveckii77, Я тут))))
Написалslaveckii77
24 января 2016
Где все ??? ЭЭЭ народ?
Написалslaveckii77
24 января 2016
Где все ??? ЭЭЭ народ?

Только зарегистрированные пользователи могут отправлять сообщения.

Наша группа

0-9  A-Z  А  Б  В  Г  Д  Е  Ж  З  И  К  Л  М  Н  О  П  Р  С  Т  У  Ф  Х  Ц  Ч  Ш  Щ  Ю  Я 

Просмотров: 1053, Комментариев: 0
E |--------------------------------|
B |--------------------------------|
G |----9-11-12~-11-9-7~--9/11/9-9~-|
D |-9-------------------9----------|
A |--------------------------------|
E |--------------------------------|
Дата: 19-11-2013, 19:10, Добавил: Aurondel, Раздел: Зинчук Виктор
Просмотров: 2508, Комментариев: 0
E |------------------------------0-|-5----3----0----5----3----0-|
B |------------0--1--0--1--3-------|----------------------------|
G |------3-2--3--------------------|----------------------------|
D |--4-----------------------------|----------------------------|
A |--------------------------------|----------------------------|
E |--------------------------------|----------------------------|
Дата: 19-11-2013, 19:05, Добавил: Aurondel, Раздел: Зинчук Виктор
Просмотров: 908, Комментариев: 0
Тема
Tempo de marcha
E |------++---------------------------------------------|
B |------++---------------------------------------------|
G |------++---------------------------------------------|
D |--2/7-++--9p7-9h11--11p9-7h11--9p7--9h11-11--9h11-11-|
A |------++---------------------------------------------|
E |------++---------------------------------------------|
Дата: 19-11-2013, 19:01, Добавил: Aurondel, Раздел: Зинчук Виктор
Просмотров: 667, Комментариев: 0
E |----------------------|--7----8--------------|--10-----------|
B |--------------10------|------------10--------|---------------|
G |--9------9------------|----------------------|------------10-|
D |----------------------|----------------------|---------------|
A |----------------------|----------------------|---------------|
E |----------------------|----------------------|---------------|
Дата: 19-11-2013, 18:54, Добавил: Aurondel, Раздел: Зинчук Виктор
Просмотров: 1229, Комментариев: 0
E |-8--(помутите что нибудь с арпеджио, и всё будет классно)|
B |-10------------------------------------------------------|
G |-9-------------------------------------------------------|
D |-7-------------------------------------------------------|
A |-x-------------------------------------------------------|
E |-x-------------------------------------------------------|
Дата: 19-11-2013, 18:51, Добавил: Aurondel, Раздел: Зинчук Виктор
Просмотров: 645, Комментариев: 0
1 part:
E |-------------------------------------------------|
B |---7---7p5---7~~-12------------------------------|
G |*--------------------12-/-9--7-6-7-6h7p6--4-/2-2-|
D |*------------------------------------------------|
A |-------------------------------------------------|
E |-------------------------------------------------|
Дата: 19-11-2013, 18:17, Добавил: Aurondel, Раздел: Зинчук Виктор
Просмотров: 2703, Комментариев: 0
E |-------------------------------------------|
B |--------5-6-5------------------------------|
G |--2-5-7-------7-4-0--2-4-5-2-2--1--2-4-1---|
D |-----------------------------------------2-|
A |-------------------------------------------|
E |-------------------------------------------|
Дата: 19-11-2013, 18:06, Добавил: Aurondel, Раздел: Зинчук Виктор


Популярные песни
  • Титаник
  • Пираты карибского моря
  • Все бабы суки бабы бляди
  • Над старым аулом
  • Ламбада
  • Солдат (из к/ф Мы из будущего)
  • Мальчишка-наркоман
  • За Родину
  • Девочка не надо слезы лить напрасно
  • Орленок - Звезды


  • Облако тегов
    , 8 марта, Ария, Армия, би-2, блядь, Война, гитара, Грусть, Дворовые, ддт, Звери, Измена, Иностранные, интересное, Кино, КиШ, Красиво, Кузя, лагерное, лагерные песни, лагерь, Лирика, Любовь, Любэ, Многоточие, Море, Наутилус Помпилиус, о жизни, песня, под гитару, Приколы, Разное, Расставание, Сектор газа, Слезы, Сплин, У костра, Чиж и Ко, Школа

    Показать все теги