Войти
Навигация

Мини-чат
Написалzhelinscky
23 октября 2016
привет всем заходите на портал гитаристов akkordmovi.com
Написалzhelinscky
23 октября 2016
всем привет заходите на новый портал гитаристов [leech=http://akkordmovi.com]akko
rdmovi.com[/leech]
НаписалВексель
7 августа 2016
Всем привет
НаписалAragorn
4 апреля 2016
привет
НаписалVurf
1 марта 2016
шалом, бездельники!)
НаписалHohner
8 февраля 2016
https://www.youtube.com/watch?v=9
wG5oHsYkvA
НаписалHohner
8 февраля 2016
smile-03
Написалslaveckii77
24 января 2016
slaveckii77, Я тут))))
Написалslaveckii77
24 января 2016
Где все ??? ЭЭЭ народ?
Написалslaveckii77
24 января 2016
Где все ??? ЭЭЭ народ?

Только зарегистрированные пользователи могут отправлять сообщения.

Наша группа

0-9  A-Z  А  Б  В  Г  Д  Е  Ж  З  И  К  Л  М  Н  О  П  Р  С  Т  У  Ф  Х  Ц  Ч  Ш  Щ  Ю  Я 

Просмотров: 25, Комментариев: 0
Красивый кусок, который просто играется.

E |-----------------------------------------------------------|
B |---7-8-10---7-10-7-5---------12-10-8-7-10---7-10-7---------|
G |-7--------7----------6-7-9----------------7--------9-7-9---|
D |-0-----------------0-------7---------0-------------------7-|
A |-------------------------------------------------------0---|
E |-----------------------------------------------------------|
Дата: 23-11-2016, 16:33, Добавил: Aurondel, Раздел: Вивальди Антонио
Просмотров: 19, Комментариев: 0
Allegro
E ||--2------2--0------0--2------2--0------0-|
B ||--3------3--2------2--3------3--2------2-|
G ||-----------------------------------------|
D ||--0-------------------0------------------|
A ||------------0-------------------0--------|
E ||-----------------------------------------|
Дата: 23-11-2016, 16:28, Добавил: Aurondel, Раздел: Вивальди Антонио
Просмотров: 22, Комментариев: 0
E ||----5-----5-----5-----5---|----5-----5-------------|
B ||--7---7-5---5-7---7-5---5-|--7---7-7---7-5-------5-|
G ||--------------------------|-----------------2------|
D ||--0-----------0-----------|--0-----0----------2----|
A ||--------0-----------0-----|--------------0-------0-|
E ||--------------------------|------------------------|
Дата: 23-11-2016, 16:05, Добавил: Aurondel, Раздел: Вивальди Антонио
Просмотров: 21, Комментариев: 0
E ||-------2-3---5-|------2-5---2-|--0---------0-|------7-5---3-|
B ||---3-----------|--3-----------|--2---2-3-----|--------------|
G ||*--2-----------|--2-----------|--2-----------|--2-----------|
D ||*--0-----0-----|--0-----0-----|--------------|--------------|
A ||---------------|--------------|--0-----0-----|--0-----0-----|
E ||---------------|--------------|--------------|--------------|
Дата: 23-11-2016, 15:16, Добавил: Aurondel, Раздел: Вивальди Антонио
Просмотров: 18, Комментариев: 0
E |-2--2--2--2--0--0--0--0-|-2--2--2--2--0--0--0--0-|
B |-3--3--3--3--2--2--2--2-|-3--3--3--3--2--2--2--2-|
G |-2--2--2--2--2--2--2--2-|-2--2--2--2--2--2--2--2-|
D |-0--0--0--0-------------|-0--0--0--0-------------|
A |-------------0--0--0--0-|-------------0--0--0--0-|
E |------------------------|------------------------|
Дата: 23-11-2016, 15:09, Добавил: Aurondel, Раздел: Вивальди Антонио
Просмотров: 1473, Комментариев: 0
E |-17-16--17-15-13----------------|--------17--16--17-15-13----|
B |-----------------17-15-13-------|-17----------------------17-|
G |--------------------------16-14-|----------------------------|
D |--------------------------------|----14----------------------|
A |--------------------------------|----------------------------|
E |--------------------------------|----------------------------|
Дата: 1-02-2014, 17:32, Добавил: Aurondel, Раздел: Вивальди Антонио
Просмотров: 1264, Комментариев: 0
E ||-------------0----|-------------0----|--------------|
B ||----------1-------|----------1-------|--------------|
G ||--2---------------|--2---------------|--2-----------|
D ||-------2-----2----|-------2-----2----|-------2----2-|
A ||--0---------------|--0---------------|--0-----------|
E ||------------------|------------------|--------------|
Дата: 1-02-2014, 16:49, Добавил: Aurondel, Раздел: Вивальди Антонио


Популярные песни
  • Титаник
  • Пираты карибского моря
  • Все бабы суки бабы бляди
  • Над старым аулом
  • Ламбада
  • Солдат (из к/ф Мы из будущего)
  • Мальчишка-наркоман
  • За Родину
  • Девочка не надо слезы лить напрасно
  • Орленок - Звезды


  • Облако тегов
    , 8 марта, Ария, Армия, би-2, блядь, Война, гитара, Грусть, Дворовые, ддт, Звери, Измена, Иностранные, интересное, Кино, КиШ, Красиво, Кузя, лагерное, лагерные песни, лагерь, Лирика, Любовь, Любэ, Многоточие, Море, Наутилус Помпилиус, о жизни, песня, под гитару, Приколы, Разное, Расставание, Сектор газа, Слезы, Сплин, У костра, Чиж и Ко, Школа

    Показать все теги