Войти
Навигация

Мини-чат
Написал-LioNesS-
Хотелось бы узнать на 8 марта есть норм песни??
Написал-LioNesS-
Привет
НаписалВексель
Всем привет
НаписалAragorn
привет
НаписалVurf
шалом, бездельники!)
НаписалHohner
https://www.youtube.com/watch?v=9
wG5oHsYkvA
Написалslaveckii77
slaveckii77, Я тут))))
Написалslaveckii77
Где все ??? ЭЭЭ народ?

Только зарегистрированные пользователи могут отправлять сообщения.

Наша группа

0-9  A-Z  А  Б  В  Г  Д  Е  Ж  З  И  К  Л  М  Н  О  П  Р  С  Т  У  Ф  Х  Ц  Ч  Ш  Щ  Ю  Я 

Просмотров: 918, Комментариев: 0
Hm
Я мечтаю вернуться с войны,
A Hm
На которой родился и рос,
Am
На руинах нищей страны
Em Am
Под дождями из слез.
Дата: 19-11-2014, 02:35, Добавил: au121, Раздел: Тальков Игорь
Просмотров: 606, Комментариев: 0
Em E# 5sus4
Он когда-то был гоним,
D Em
Мы на него молились.
D6 - 5sus4 E# 5sus4
Он такие песни пел,
Дата: 19-11-2014, 02:35, Добавил: au121, Раздел: Тальков Игорь
Просмотров: 971, Комментариев: 0
Em
Я мечтаю вернуться с войны,
Hm
На которой родился и рос,
Am
На руинах нищей страны
Em Hm
Под дождями из слез.
Дата: 19-11-2014, 02:35, Добавил: au121, Раздел: Тальков Игорь
Просмотров: 592, Комментариев: 0
Am
Мы живем, как на вулкане,
Em7
И всю жизнь играем в тир:
Am7 Hm7 Em
В этом тире каждый стал из нас мишенью.
Am Em7
И так часто называем грешным этот мир,
Дата: 19-11-2014, 02:35, Добавил: au121, Раздел: Тальков Игорь
Просмотров: 1005, Комментариев: 0
Dm
E ||----------|----------|---10--12--13--10-----|--17-|
B ||----------|----------|----------------------|-----|
G ||----------|----------|----------------------|-----|
D ||----------|----------|----------------------|-----|
A ||----------|----------|----------------------|-----|
E ||----------|----------|----------------------|-----|
Дата: 19-11-2014, 02:35, Добавил: au121, Раздел: Тальков Игорь
Просмотров: 749, Комментариев: 0
G6-5 Am
Посреди долины где-то,
G6-5
Озарённой солнцем ранним,
G Am
Он искал зачем-то света -
Дата: 19-11-2014, 02:35, Добавил: au121, Раздел: Тальков Игорь
Просмотров: 730, Комментариев: 0
Проигрыш:
E |--1-0-1---------0--1-0-1--------0--1-0-0----------------|
B |------------3----------------3-----------3-3--2-2-------|
G |--------2--2-------------3--3-----------------------3-3-|
D |--------------------------------------------------------|
A |--------------------------------------------------------|
E |--------------------------------------------------------|
Дата: 19-11-2014, 02:35, Добавил: au121, Раздел: Тальков Игорь


Популярные песни
  • Титаник
  • Пираты карибского моря
  • Все бабы суки бабы бляди
  • Над старым аулом
  • Ламбада
  • Солдат (из к/ф Мы из будущего)
  • За Родину
  • Мальчишка-наркоман
  • Девочка не надо слезы лить напрасно
  • Орленок - Звезды


  • Облако тегов
    , 8 марта, Ария, Армия, би-2, блядь, Валерий Скутин, Война, Грусть, Дворовые, ддт, Звери, Измена, Иностранные, интересное, Кино, КиШ, Красиво, Кузя, лагерное, лагерные песни, лагерь, Лирика, Любовь, Любэ, ляпис трубецкой, Многоточие, Наутилус Помпилиус, о жизни, песня, под гитару, Приколы, Разное, Расставание, Сектор газа, Слезы, Сплин, У костра, Чиж и Ко, Школа

    Показать все теги