Войти
Навигация

Мини-чат
Написал-LioNesS-
Хотелось бы узнать на 8 марта есть норм песни??
Написал-LioNesS-
Привет
НаписалВексель
Всем привет
НаписалAragorn
привет
НаписалVurf
шалом, бездельники!)
НаписалHohner
https://www.youtube.com/watch?v=9
wG5oHsYkvA
Написалslaveckii77
slaveckii77, Я тут))))
Написалslaveckii77
Где все ??? ЭЭЭ народ?

Только зарегистрированные пользователи могут отправлять сообщения.

Наша группа

0-9  A-Z  А  Б  В  Г  Д  Е  Ж  З  И  К  Л  М  Н  О  П  Р  С  Т  У  Ф  Х  Ц  Ч  Ш  Щ  Ю  Я 

Просмотров: 760, Комментариев: 0
Intro:

Guitar1:
E|-----------------| |-----------------|
B|-----------------| |-----------------|
G|-----------------| |-----------------|
D|---5-6-6-5-6-5---| |-----------------|
A|-7---0---------7-| |---3-5-5-3-3-3---|
E|-----------------| |-5-------------5-|
Дата: 19-11-2014, 01:44, Добавил: au121, Раздел: Приключения Электроников
Просмотров: 954, Комментариев: 0
Am
Земля в иллюминаторе,
F
Земля в иллюминаторе,
Dm E
Земля в иллюминаторе видна.
Am
Как сын грустит о матери,
Дата: 19-11-2014, 01:44, Добавил: au121, Раздел: Приключения Электроников
Просмотров: 1328, Комментариев: 0
G5
Синий синий иней
Синий синий иней
C5
Синий синий иней
Синий синий иней
Дата: 19-11-2014, 01:44, Добавил: au121, Раздел: Приключения Электроников
Просмотров: 1174, Комментариев: 0
Hm F#
Слышу голос из Прекрасного Далека,
F# Hm
Голос утренний в серебряной росе.
G A D
Слышу голос - и манящая дорога.
D G G7 F#
Кружит голову, как в детстве карусель.
Дата: 19-11-2014, 01:44, Добавил: au121, Раздел: Приключения Электроников
Просмотров: 876, Комментариев: 0
Riff 1 |Riff 2| Riff 3 | Riff 4 | Riff 5 | Riff 6
E|-x---x--|x---x-|--x---x---x-|--x---x-----|--x---x-|--x---x-|
B|-x---x--|x---x-|--x---x---x-|--x---x-----|--x---x-|--x---x-|
G|-x---7--|x---2-|--x---x---5-|--x---7-----|--x---5-|--x---5-|
D|-7---7--|2---2-|--3---5---5-|--3---7---2-|--3---5-|--5---5-|
A|-7---5--|2---0-|--3---5---3-|--3---5---2-|--3---3-|--5---3-|
E|-5------|0-----|--1---3-----|--1-------0-|--1-----|--3-----|
Дата: 19-11-2014, 01:44, Добавил: au121, Раздел: Приключения Электроников
Просмотров: 1160, Комментариев: 0
Ла-ла-ла (Под аккорды Dm Am E Am
Dm Am E Am E)
Am
Если с другом вышел в путь
Если с другом вышел в путь
E
Веселей дорога
Без друзей меня чуть чуть
Без друзей меня чуть чуть
Am
А с друзьями много
Дата: 19-11-2014, 01:44, Добавил: au121, Раздел: Приключения Электроников
Просмотров: 1467, Комментариев: 0
E|-------------------------------------------|
B|-1--------------1-4-2------------1---------|
G|-----------1--------------1--0--------0--1-|
D|------3------------------------------------|
A|-------------------------------------------|
E|-------------------------------------------|
Дата: 19-11-2014, 01:44, Добавил: au121, Раздел: Приключения Электроников


Популярные песни
  • Титаник
  • Пираты карибского моря
  • Все бабы суки бабы бляди
  • Над старым аулом
  • Ламбада
  • Солдат (из к/ф Мы из будущего)
  • За Родину
  • Мальчишка-наркоман
  • Девочка не надо слезы лить напрасно
  • Орленок - Звезды


  • Облако тегов
    , 8 марта, Noize MC, Агата Кристи, Ария, Армия, би-2, блядь, Война, Грусть, Дворовые, ддт, Звери, Измена, Иностранные, интересное, Кино, КиШ, Красиво, Кузя, лагерное, лагерь, Лирика, Любовь, Любэ, Мельница, Многоточие, Наутилус Помпилиус, о жизни, песня, под гитару, Приколы, Разное, Расставание, Сектор газа, Слезы, Сплин, У костра, Чиж и Ко, Школа

    Показать все теги