Войти
Навигация

Мини-чат
Написалzhelinscky
23 октября 2016
привет всем заходите на портал гитаристов akkordmovi.com
Написалzhelinscky
23 октября 2016
всем привет заходите на новый портал гитаристов [leech=http://akkordmovi.com]akko
rdmovi.com[/leech]
НаписалВексель
7 августа 2016
Всем привет
НаписалAragorn
4 апреля 2016
привет
НаписалVurf
1 марта 2016
шалом, бездельники!)
НаписалHohner
8 февраля 2016
https://www.youtube.com/watch?v=9
wG5oHsYkvA
НаписалHohner
8 февраля 2016
smile-03
Написалslaveckii77
24 января 2016
slaveckii77, Я тут))))
Написалslaveckii77
24 января 2016
Где все ??? ЭЭЭ народ?
Написалslaveckii77
24 января 2016
Где все ??? ЭЭЭ народ?

Только зарегистрированные пользователи могут отправлять сообщения.

Наша группа

0-9  A-Z  А  Б  В  Г  Д  Е  Ж  З  И  К  Л  М  Н  О  П  Р  С  Т  У  Ф  Х  Ц  Ч  Ш  Щ  Ю  Я 

Просмотров: 938, Комментариев: 0
C
Ночь вернулась.Что случилось?
G
Но не спит никто во мгле
F C G
Где ангел, ангел снов и мглы?
C
Здравствуй, друг. Я - добрый ангел
Дата: 14-02-2014, 22:14, Добавил: Aurondel, Раздел: Коррозия металла
Просмотров: 928, Комментариев: 0
Intro:
E |------------------------------------------------|
B |------------------------------------------------|
G |----------------10-11-10------------------------|
D |-8-8-11-8-(6-8)-10-11-10-11-8-------------------|
A |-8-8-11-8-(6-8)-8--9--8--11-8-------------------|
E |-6-6-9--6-(4-6)----------9--6-/xxxx--(feedback)-|
Дата: 14-02-2014, 22:05, Добавил: Aurondel, Раздел: Коррозия металла
Просмотров: 808, Комментариев: 0
GTR1
E |------------------|-----------------|
B |------------------|-----------------|
G |------------------|-----------------|
D |7-----------------|7----------------|
A |7------------5-7--|7------------5-7-|
E |5------5-7-8------|5------5-7-8-----|
Дата: 12-02-2014, 23:57, Добавил: Aurondel, Раздел: Коррозия металла
Просмотров: 886, Комментариев: 0
Куплет:
G5 E5 G5 B5 G5
Школьный звонок
G5 E5 G5 B5 G5
Первый урок
итд
Дата: 12-02-2014, 22:57, Добавил: Aurondel, Раздел: Коррозия металла


Популярные песни
  • Титаник
  • Пираты карибского моря
  • Все бабы суки бабы бляди
  • Над старым аулом
  • Ламбада
  • Солдат (из к/ф Мы из будущего)
  • Мальчишка-наркоман
  • За Родину
  • Девочка не надо слезы лить напрасно
  • Орленок - Звезды


  • Облако тегов
    , 8 марта, Ария, Армия, би-2, блядь, Валерий Скутин, Война, Грусть, Дворовые, ддт, Звери, Измена, Иностранные, интересное, Кино, КиШ, Красиво, Кузя, лагерное, лагерь, Лирика, Любовь, Любэ, ляпис трубецкой, Многоточие, Наутилус Помпилиус, о жизни, песни, песня, под гитару, Приколы, Разное, Расставание, Сектор газа, Слезы, Сплин, У костра, Чиж и Ко, Школа

    Показать все теги