Войти
Навигация

Мини-чат
Написал-LioNesS-
23 февраля 2017
Хотелось бы узнать на 8 марта есть норм песни??
Написал-LioNesS-
23 февраля 2017
Привет
НаписалКурт ваш любимий
27 января 2017
привет
НаписалВексель
7 августа 2016
Всем привет
НаписалAragorn
4 апреля 2016
привет
НаписалVurf
1 марта 2016
шалом, бездельники!)
НаписалHohner
8 февраля 2016
https://www.youtube.com/watch?v=9
wG5oHsYkvA
НаписалHohner
8 февраля 2016
smile-03
Написалslaveckii77
24 января 2016
slaveckii77, Я тут))))
Написалslaveckii77
24 января 2016
Где все ??? ЭЭЭ народ?

Только зарегистрированные пользователи могут отправлять сообщения.

Наша группа

0-9  A-Z  А  Б  В  Г  Д  Е  Ж  З  И  К  Л  М  Н  О  П  Р  С  Т  У  Ф  Х  Ц  Ч  Ш  Щ  Ю  Я 

Просмотров: 2629, Комментариев: 0
Har.
е ||-4-5-7-----~~10~---10-8-7-8-7h8p7⁄5-7-5-4---------------------0--0---|
B ||-0-------------------------------------------6-5-3---5--------0----0-|
G ||-4-------------------------------------------------5---4------2------|
D ||-2-------------------------------------------------------5----3------|
а ||-----------------------------------------------------------5~-3------|
е ||-------12--------------------------------0---------------------------|
Дата: 16-11-2013, 11:44, Добавил: Aurondel, Раздел: ДиДюЛя
Просмотров: 1566, Комментариев: 0
E |--/-----------------------------------------------------------/--------------|
B |--/-----------------------------------------------------------/--------------|
G |--/---7---7-6-4-6-4h6p4-6-7-4-4h6p4-6-7-4-9-7h9p7-6-6-/-4-4-4------4---------|
D |--/-4---4-----------------------------------------------------/--5---5--5--5-|
A |--/-----------------------------------------------------------/--------------|
E |--/-----------------------------------------------------------/--------------|
Дата: 16-11-2013, 11:33, Добавил: Aurondel, Раздел: ДиДюЛя
Просмотров: 2158, Комментариев: 0
Am
Словно ветер в степи
Dm
Словно в речке вода
C G
День прошёл и назад, день прошёл и назад
Dm
Не придёт никогда
Дата: 16-11-2013, 11:12, Добавил: Aurondel, Раздел: ДиДюЛя
Просмотров: 1738, Комментариев: 0
Gm F
е |-----------3------------------------|-----------1----------------------|
B |---------3---3------------3-4-5-4-3-|---------1---1----------1-3-4-3-1-|
G |-------3-------3--------------------|-------2-------2------------------|
D |-----5-----------5------------------|-----3-----------3----------------|
а |---5---------------5----------------|---3---------------3--------------|
е |-3-------------------3-3------------|-1-------------------1------------|
Дата: 16-11-2013, 10:48, Добавил: Aurondel, Раздел: ДиДюЛя


Популярные песни
  • Титаник
  • Пираты карибского моря
  • Все бабы суки бабы бляди
  • Над старым аулом
  • Ламбада
  • Солдат (из к/ф Мы из будущего)
  • За Родину
  • Мальчишка-наркоман
  • Девочка не надо слезы лить напрасно
  • Орленок - Звезды


  • Облако тегов
    , 8 марта, Ария, Армия, би-2, блядь, Валерий Скутин, Война, Грусть, Дворовые, ддт, Звери, Измена, Иностранные, интересное, Кино, КиШ, Красиво, Кузя, лагерное, лагерные песни, лагерь, Лирика, Любовь, Любэ, ляпис трубецкой, Многоточие, Наутилус Помпилиус, о жизни, песня, под гитару, Приколы, Разное, Расставание, Сектор газа, Слезы, Сплин, У костра, Чиж и Ко, Школа

    Показать все теги