Войти
Навигация

Мини-чат
Написалzhelinscky
привет всем http://akkordmovi.com/
архив аккордов кручее намного
НаписалВексель
Всем привет
НаписалAragorn
привет
НаписалVurf
шалом, бездельники!)
НаписалHohner
https://www.youtube.com/watch?v=9
wG5oHsYkvA
Написалslaveckii77
slaveckii77, Я тут))))
Написалslaveckii77
Где все ??? ЭЭЭ народ?
Написалslaveckii77
Где все ??? ЭЭЭ народ?
Написалslaveckii77
Привет народ)

Только зарегистрированные пользователи могут отправлять сообщения.

Наша группа

0-9  A-Z  А  Б  В  Г  Д  Е  Ж  З  И  К  Л  М  Н  О  П  Р  С  Т  У  Ф  Х  Ц  Ч  Ш  Щ  Ю  Я 

Просмотров: 949, Комментариев: 0
Обозначения:
G D C C3 Am
E |-3-| |-2-| |-0-| |-3-| |-0-|
B |-5-| |-3-| |-1-| |-5-| |-1-|
G |-5-| |-2-| |-0-| |-5-| |-2-|
D |-4-| |-0-| |-2-| |-5-| |-2-|
A |-3-| |-0-| |-3-| |-3-| |-0-|
E |-3-| |-x-| |-0-| |-3-| |-0-|
Дата: 26-01-2014, 17:24, Добавил: Aurondel, Раздел: Брамс Иоганнес
Просмотров: 918, Комментариев: 0
Allegro
E |---------------|----------------|-----------------|----------|
B |---------------|-1--------------|-----------------|----------|
G |-------------2-|-------------2--|-1-----------2^4-|-2--------|
D |-2-------------|----------------|--------0--------|----------|
A |-0------3------|-0------3-------|-0---------------|-0------3-|
E |---------------|----------------|-----------------|----------|
Дата: 26-01-2014, 16:48, Добавил: Aurondel, Раздел: Брамс Иоганнес
Просмотров: 1309, Комментариев: 0
1 Am E Am Dm H
E |--------------------------------------|-1----------|
B |-----------1----------------0---------|---3--------|
G |----(2)--2--(2)--2--1-----2---2-------|-----2--0-2-|
D |---2------------------2---------2---2-|-0----------|
A |---0-------0------------3-------------|------------|
E |------(0)-----(0)-----------------0---|------------|
Дата: 26-01-2014, 16:26, Добавил: Aurondel, Раздел: Брамс Иоганнес
Просмотров: 772, Комментариев: 0
E ||-------------------|-------------------|--------------|
B ||--0-------------0--|--0-------------0--|--1----0------|
G ||*---------0--0-----|----------0--0-----|------------2-|
D ||*------0-----------|-------0-----------|--2----0------|
A ||-------2-----------|-------2-----------|------------3-|
E ||--3----------------|--3----------------|--3-----------|
Дата: 26-01-2014, 15:55, Добавил: Aurondel, Раздел: Брамс Иоганнес


Популярные песни
  • Титаник
  • Пираты карибского моря
  • Все бабы суки бабы бляди
  • Над старым аулом
  • Ламбада
  • Солдат (из к/ф Мы из будущего)
  • За Родину
  • Мальчишка-наркоман
  • Девочка не надо слезы лить напрасно
  • Орленок - Звезды


  • Облако тегов
    , 8 марта, 9 мая, Noize MC, Ария, Армия, би-2, блядь, вожатый, Война, Грусть, Дворовые, ддт, Звери, Измена, Иностранные, интересное, Кино, КиШ, Красиво, Кузя, лагерное, лагерь, Лирика, Любовь, Любэ, Многоточие, Наутилус Помпилиус, о жизни, песня, под гитару, Приколы, Разное, Расставание, Сектор газа, Слезы, Сплин, У костра, Чиж и Ко, Школа

    Показать все теги