Войти
Навигация

Мини-чат
Написалzhelinscky
привет всем заходите на портал гитаристов akkordmovi.com
Написалzhelinscky
всем привет заходите на новый портал гитаристов [leech=http://akkordmovi.com]akko
rdmovi.com[/leech]
НаписалВексель
Всем привет
НаписалAragorn
привет
НаписалVurf
шалом, бездельники!)
НаписалHohner
https://www.youtube.com/watch?v=9
wG5oHsYkvA
Написалslaveckii77
slaveckii77, Я тут))))
Написалslaveckii77
Где все ??? ЭЭЭ народ?
Написалslaveckii77
Где все ??? ЭЭЭ народ?

Только зарегистрированные пользователи могут отправлять сообщения.

Наша группа

0-9  A-Z  А  Б  В  Г  Д  Е  Ж  З  И  К  Л  М  Н  О  П  Р  С  Т  У  Ф  Х  Ц  Ч  Ш  Щ  Ю  Я 

Просмотров: 1036, Комментариев: 0
DISTORSION:
D |----3---5---3---5---------8--------5-|
A |----3---5---3---5---------8--------5-|
E |----1---3---1---3---------6--------3-|

G |----------------------5------------|
D |----5----------------------------5-|
A |----5----------------------------3-|
E |----3------------------------------|
Яблоки на снегу, розовое на белом!
Дата: 19-06-2013, 11:45, Добавил: Aurondel, Раздел: Бони неМ
Просмотров: 2674, Комментариев: 0
F#5
Яблоки на снегу
Розовые на белом
E5 А5
Что же нам с ними делать
В5 С#5 C#5 C#5
С яблоками на снегу
Дата: 19-06-2013, 11:29, Добавил: Aurondel, Раздел: Бони неМ
Просмотров: 1662, Комментариев: 0
Intro
Gtr 1 and Gtr 2 (clean electric) x4
E |----0--0--x---0--0--0--x---2--2--x---4--4--4--x-----|
B |*---1--1--x---1--1--1--x---3--3--x---5--5--5--x----*|
G |----2--2--x---0--0--0--x---2--2--x---4--4--4--x-----|
D |----2--2--x---2--2--2--x---0--0--x------------x-----|
A |*---0--0--x---3--3--3--x---------------------------*|
E |----------------------------------------------------|
- + - + - + - + - + + + + +
Дата: 19-06-2013, 10:51, Добавил: Aurondel, Раздел: Бони неМ
Просмотров: 2138, Комментариев: 0
E |-------------0----------1--x-3-3--x------------|
B |*-----1--------1--------1--x-3-3--x----------*-|
G |--------2--------2------2--x-4-4--x------------|
D |----------2--------2----3--x-5-5--x------------|
A |*--0--------------------3--x-5-5--x----------*-|
E |------------------------1--x-------------------|
Дата: 19-06-2013, 10:29, Добавил: Aurondel, Раздел: Бони неМ
Просмотров: 1390, Комментариев: 0
E |------------------------------------------------|
B |--------3-----------3-----------3-----------3---|
G |----------3-----------3-----------3-----------3-|
D |-5-----------5-----------5-----------5----------|
A |--5---5-------5---5-------5---5-------5---5-----|
E |------------------------------------------------|
Дата: 19-06-2013, 09:24, Добавил: Aurondel, Раздел: Бони неМ
Просмотров: 899, Комментариев: 0
Gtr 1
E |---------------------------------------------------------|
B |---------------------------------------------------------|
G |---------------------------------------------------------|
D |---------------------------------------------------------|
A |----7-7--5-(5)---5-5--3-(3)----7-7--5-(5)-----5-5--3-(3)-|
E |----5-5--3-(3)---3-3—-1—(1)----5-5--3-(3)-----3-3—-1—(1)-|
Дата: 19-06-2013, 09:03, Добавил: Aurondel, Раздел: Бони неМ
Просмотров: 986, Комментариев: 0
E |--------------------------------------|
B |--------------------------------------|
G |--------------------------------------|
D |----------------------------------5---|
A |-----5-5-5-5-5-5-5-5-5-5-5-5-5----3---|
E |--------------------------------------|
Дата: 17-06-2013, 13:17, Добавил: Aurondel, Раздел: Бони неМ


Популярные песни
  • Титаник
  • Пираты карибского моря
  • Все бабы суки бабы бляди
  • Над старым аулом
  • Ламбада
  • Солдат (из к/ф Мы из будущего)
  • Мальчишка-наркоман
  • За Родину
  • Девочка не надо слезы лить напрасно
  • Орленок - Звезды


  • Облако тегов
    , 8 марта, Ария, Армия, би-2, блядь, Валерий Скутин, Война, Грусть, Дворовые, ддт, Звери, Измена, Иностранные, интересное, Кино, КиШ, Красиво, Кузя, лагерное, лагерные песни, лагерь, Лирика, Любовь, Любэ, ляпис трубецкой, Многоточие, Наутилус Помпилиус, о жизни, песня, под гитару, Приколы, Разное, Расставание, Сектор газа, Слезы, Сплин, У костра, Чиж и Ко, Школа

    Показать все теги