Войти
Навигация

Мини-чат
Написал-LioNesS-
Хотелось бы узнать на 8 марта есть норм песни??
Написал-LioNesS-
Привет
НаписалВексель
Всем привет
НаписалAragorn
привет
НаписалVurf
шалом, бездельники!)
НаписалHohner
https://www.youtube.com/watch?v=9
wG5oHsYkvA
Написалslaveckii77
slaveckii77, Я тут))))
Написалslaveckii77
Где все ??? ЭЭЭ народ?

Только зарегистрированные пользователи могут отправлять сообщения.

Наша группа

0-9  A-Z  А  Б  В  Г  Д  Е  Ж  З  И  К  Л  М  Н  О  П  Р  С  Т  У  Ф  Х  Ц  Ч  Ш  Щ  Ю  Я 

Просмотров: 1357, Комментариев: 0
E |------------|----------------|
B |------3--2--|--1--1--1--0----|
G |------------|--------------3-|
D |------------|----------------|
A |------------|----------------|
E |------------|----------------|
Дата: 26-01-2014, 15:33, Добавил: Aurondel, Раздел: Бизе Жорж
Просмотров: 2183, Комментариев: 0
E |---------|---------|---------|---------|
B |---------|---------|---------|-----3-2-|
G |---------|---------|---------|---------|
D |-----3---|-----3---|-----3---|-----3---|
A |---0---0-|---0---0-|---0---0-|---0---0-|
D |-0-------|-0-------|-0-------|-0-------|
Дата: 26-01-2014, 15:17, Добавил: Aurondel, Раздел: Бизе Жорж
Просмотров: 1868, Комментариев: 0
E |-------------------|--------------------|--------------------|
B |-1----3---1--------|--------------------|-----------1--------|
G |------------2----2-|-2---0-2---3-2------|--3----0-----2------|
D |-3----------3------|-3-----------3------|-------------3----2-|
A |------3----------3-|-------3----------3-|-------3------------|
E |-------------------|--------------------|--3-----------------|
Дата: 24-01-2014, 18:48, Добавил: Aurondel, Раздел: Бизе Жорж


Популярные песни
  • Титаник
  • Пираты карибского моря
  • Все бабы суки бабы бляди
  • Над старым аулом
  • Ламбада
  • Солдат (из к/ф Мы из будущего)
  • За Родину
  • Мальчишка-наркоман
  • Девочка не надо слезы лить напрасно
  • Орленок - Звезды


  • Облако тегов
    , 8 марта, Noize MC, Агата Кристи, Ария, Армия, би-2, блядь, Война, Грусть, Дворовые, ддт, Звери, Измена, Иностранные, интересное, Кино, КиШ, Красиво, Кузя, лагерное, лагерь, Лирика, Любовь, Любэ, Мельница, Многоточие, Наутилус Помпилиус, о жизни, песня, под гитару, Приколы, Разное, Расставание, Сектор газа, Слезы, Сплин, У костра, Чиж и Ко, Школа

    Показать все теги