Войти
Навигация

Мини-чат
Написал-LioNesS-
Хотелось бы узнать на 8 марта есть норм песни??
Написал-LioNesS-
Привет
НаписалВексель
Всем привет
НаписалAragorn
привет
НаписалVurf
шалом, бездельники!)
НаписалHohner
https://www.youtube.com/watch?v=9
wG5oHsYkvA
Написалslaveckii77
slaveckii77, Я тут))))
Написалslaveckii77
Где все ??? ЭЭЭ народ?

Только зарегистрированные пользователи могут отправлять сообщения.

Наша группа

0-9  A-Z  А  Б  В  Г  Д  Е  Ж  З  И  К  Л  М  Н  О  П  Р  С  Т  У  Ф  Х  Ц  Ч  Ш  Щ  Ю  Я 

Просмотров: 1109, Комментариев: 0
E |-----|---------------|---------------|--------0---0-|
B |--3--|--0-0-3-----1--|----0-3-0---3--|--3-----------|
G |-----|--0---4-2---2--|--0---0---0----|------0-----2-|
D |-----|--------0-4----|------------0--|----0-----2---|
A |-----|---------------|---------------|--2-----3-----|
E |-----|---------------|---------------|--------------|
Дата: 24-01-2014, 13:47, Добавил: Aurondel, Раздел: Бетховен Людвиг ван
Просмотров: 2220, Комментариев: 0
E |---3-3-3------1-1-1------------------------------------------|
B |2--------4----------3-------------------4-4-4-1--------------|
G |/--0-0-0----------------0-0-0---1-1-1-0--------------0-0-0---|
D |4--------1----3-3-3-0---------1----------------------------0-|
A |-------------------------------------------------------------|
E |-------------------------------------------------------------|
Дата: 24-01-2014, 13:35, Добавил: Aurondel, Раздел: Бетховен Людвиг ван
Просмотров: 1161, Комментариев: 0
E |----------------|----------------|
2 B |-2-------0------|-5-----------3--|
/ G |-2---2---1---1--|-2---2-------4--|
4 D |---2---2-0-2---2|---2---2---2---2|
A |-0--------------|-4--------------|
E |----------------|---------4------|
Дата: 23-01-2014, 20:14, Добавил: Aurondel, Раздел: Бетховен Людвиг ван
Просмотров: 1022, Комментариев: 0
D . C .
E ||-----|-------|---0-2-0---|-------|
B ||-----|-2-2-2-|-4-------4-|-0-0-0-|
G ||*----|-------|-----------|-------|
D ||*-2.-|-------|-----------|-------|
Дата: 23-01-2014, 19:41, Добавил: Aurondel, Раздел: Бетховен Людвиг ван
Просмотров: 2241, Комментариев: 0
E |------------------------|------------------------|
B |-----1-----1-----1-----1|-----1-----1-----1-----1|
G |---2-----2-----2-----2--|---2-----2-----2-----2--|
D |-2-----2-----2-----2----|-2-----2-----2-----2----|
A |-0----------------------|------------------------|
E |------------------------|-3----------------------|
Дата: 23-01-2014, 19:39, Добавил: Aurondel, Раздел: Бетховен Людвиг ван
Просмотров: 6024, Комментариев: 0
E |------------------------|------------------------|
B |-----1-----1-----1-----1|-----1-----1-----1-----1|
G |---2-----2-----2-----2--|---2-----2-----2-----2--|
D |-2-----2-----2-----2----|-2-----2-----2-----2----|
A |-0----------------------|------------------------|
E |------------------------|-3----------------------|
Дата: 22-01-2014, 20:46, Добавил: Aurondel, Раздел: Бетховен Людвиг ван
Просмотров: 1117, Комментариев: 0
E ||--7-6-|-7-6-7---5---|-0---------0-|-2---------2-|
B ||------|-------7---8-|---------0---|-------0-4---|
G ||*-----|-------------|-------0-----|-------------|
D ||*-----|-------------|-----2-------|-----1-------|
A ||------|-------------|---2---------|-2-2---------|
D ||------|-------------|-2-----------|-------------|
Дата: 22-01-2014, 19:46, Добавил: Aurondel, Раздел: Бетховен Людвиг ван


Популярные песни
  • Титаник
  • Пираты карибского моря
  • Все бабы суки бабы бляди
  • Над старым аулом
  • Ламбада
  • Солдат (из к/ф Мы из будущего)
  • За Родину
  • Мальчишка-наркоман
  • Девочка не надо слезы лить напрасно
  • Орленок - Звезды


  • Облако тегов
    , 8 марта, Noize MC, Агата Кристи, Ария, Армия, би-2, блядь, Война, Грусть, Дворовые, ддт, Звери, Измена, Иностранные, интересное, Кино, КиШ, Красиво, Кузя, лагерное, лагерь, Лирика, Любовь, Любэ, Мельница, Многоточие, Наутилус Помпилиус, о жизни, песня, под гитару, Приколы, Разное, Расставание, Сектор газа, Слезы, Сплин, У костра, Чиж и Ко, Школа

    Показать все теги