Войти
Навигация

Мини-чат
Написалzhelinscky
19 февраля 2017
архив аккордов [leech=http://akkordmovi.com]Akkr
odmovi[/leech] заходите играйте
))
НаписалКурт ваш любимий
27 января 2017
привет
НаписалВексель
7 августа 2016
Всем привет
НаписалAragorn
4 апреля 2016
привет
НаписалVurf
1 марта 2016
шалом, бездельники!)
НаписалHohner
8 февраля 2016
https://www.youtube.com/watch?v=9
wG5oHsYkvA
НаписалHohner
8 февраля 2016
smile-03
Написалslaveckii77
24 января 2016
slaveckii77, Я тут))))
Написалslaveckii77
24 января 2016
Где все ??? ЭЭЭ народ?
Написалslaveckii77
24 января 2016
Где все ??? ЭЭЭ народ?

Только зарегистрированные пользователи могут отправлять сообщения.

Наша группа

0-9  A-Z  А  Б  В  Г  Д  Е  Ж  З  И  К  Л  М  Н  О  П  Р  С  Т  У  Ф  Х  Ц  Ч  Ш  Щ  Ю  Я 

Просмотров: 1725, Комментариев: 0
E |-----10----------------------|------10--9--9----9-12-9-10----|
B |-12---12---12----------------|----12-12-12-12-11----------12-|
G |----------11----11---11------|--11---------------------------|
D |-------------------12---12-9-|-------------------------------|
Дата: 21-01-2014, 19:18, Добавил: Aurondel, Раздел: Бах Иоган Себастьян
Просмотров: 838, Комментариев: 0
...
E |6-5-----------------|
B |5--865----586~8-5-6-|
G |6-----76-6--------7-|
D |0-------7---------7-|
A |4-----------------5-|
E |--------------------|
Дата: 21-01-2014, 19:08, Добавил: Aurondel, Раздел: Бах Иоган Себастьян
Просмотров: 681, Комментариев: 0
: : : :
E |--5-3-5-5--3-1-0--------|-------------------|
B |-----------------3-2-3--|-------------------|
G |--2-0-2-2--0------------|--2-0-2-2----------|
D |-------------3-2-0---0--|-----------2-3---0-|
A |-------------------4----|---------------4---|
E |------------------------|-------------------|
Дата: 21-01-2014, 17:59, Добавил: Aurondel, Раздел: Бах Иоган Себастьян
Просмотров: 641, Комментариев: 0
E |-----------------|----------------|-------------|------------|
B |--10-----8p7-----|-10-----8p7-----|-------------|------------|
G |*------------9p7-|------------9p7-|-------------|------------|
D |*-----0------0---|-----0------0---|-4/5/7--5--4-|-2--/7--4-0-|
A |-----------------|----------------|-------------|------------|
D |---0-----0-------|--0-----0-------|-4/5/7--5--4-|-2--/7--4-0-|
Дата: 21-01-2014, 17:42, Добавил: Aurondel, Раздел: Бах Иоган Себастьян
Просмотров: 644, Комментариев: 0
1
E |--8-7-5-|-7-------|-5----------|-------------|-1--3-1-0---|
B |*-------|----5--5-|----------3-|-5---5-3-----|-1------0-3-|
G |--------|---------|----2-4-5---|---------5-4-|-2----------|
D |--7-----|-5-------|-3----------|-2-----------|------------|
A |*-------|---------|------------|-------------|------------|
E |--------|---------|------------|-------------|------------|
Дата: 21-01-2014, 17:36, Добавил: Aurondel, Раздел: Бах Иоган Себастьян
Просмотров: 672, Комментариев: 0
E |------------------|------------------|-0-----------0--2-|
B |-3-----------0--1-|-3----------------|-------1--3-------|
G |-------0--2-------|-------0-----0----|------------------|
D |------------------|------------------|------------------|
A |-------------0----|-2----------------|-3----------------|
E |-3----------------|------------------|------------------|
Дата: 20-01-2014, 22:55, Добавил: Aurondel, Раздел: Бах Иоган Себастьян
Просмотров: 627, Комментариев: 0
| | | | | | | | | | | |
E |-0-----------|-0-----------|-2-----0-2-4-|-5-----------|
B |-2-----0-2-3-|-------------|-----3-------|-------------|
G |-2---2-------|-----2---2---|-------------|-----2---2---|
D |-------------|-------------|-0-----------|-------------|
A |-0-------2---|-4-----------|-------------|-4-----------|
E |-------------|-------------|-------------|-------------|
Дата: 20-01-2014, 22:08, Добавил: Aurondel, Раздел: Бах Иоган Себастьян


Популярные песни
  • Титаник
  • Пираты карибского моря
  • Все бабы суки бабы бляди
  • Над старым аулом
  • Ламбада
  • Солдат (из к/ф Мы из будущего)
  • За Родину
  • Мальчишка-наркоман
  • Девочка не надо слезы лить напрасно
  • Орленок - Звезды


  • Облако тегов
    , 8 марта, Noize MC, Агата Кристи, Ария, Армия, би-2, блядь, Война, Грусть, Дворовые, ддт, Звери, Измена, Иностранные, интересное, Кино, КиШ, Красиво, Кузя, лагерное, лагерь, Лирика, Любовь, Любэ, Мельница, Многоточие, Наутилус Помпилиус, о жизни, песня, под гитару, Приколы, Разное, Расставание, Сектор газа, Слезы, Сплин, У костра, Чиж и Ко, Школа

    Показать все теги