Войти
Навигация

Мини-чат
Написалzhelinscky
23 октября 2016
привет всем заходите на портал гитаристов akkordmovi.com
Написалzhelinscky
23 октября 2016
всем привет заходите на новый портал гитаристов [leech=http://akkordmovi.com]akko
rdmovi.com[/leech]
НаписалВексель
7 августа 2016
Всем привет
НаписалAragorn
4 апреля 2016
привет
НаписалVurf
1 марта 2016
шалом, бездельники!)
НаписалHohner
8 февраля 2016
https://www.youtube.com/watch?v=9
wG5oHsYkvA
НаписалHohner
8 февраля 2016
smile-03
Написалslaveckii77
24 января 2016
slaveckii77, Я тут))))
Написалslaveckii77
24 января 2016
Где все ??? ЭЭЭ народ?
Написалslaveckii77
24 января 2016
Где все ??? ЭЭЭ народ?

Только зарегистрированные пользователи могут отправлять сообщения.

Наша группа

0-9  A-Z  А  Б  В  Г  Д  Е  Ж  З  И  К  Л  М  Н  О  П  Р  С  Т  У  Ф  Х  Ц  Ч  Ш  Щ  Ю  Я 

Просмотров: 916, Комментариев: 0
Обозначения:
G D C C3 Am
E |-3-| |-2-| |-0-| |-3-| |-0-|
B |-5-| |-3-| |-1-| |-5-| |-1-|
G |-5-| |-2-| |-0-| |-5-| |-2-|
D |-4-| |-0-| |-2-| |-5-| |-2-|
A |-3-| |-0-| |-3-| |-3-| |-0-|
E |-3-| |-x-| |-0-| |-3-| |-0-|
Дата: 26-01-2014, 17:24, Добавил: Aurondel, Раздел: Брамс Иоганнес
Просмотров: 888, Комментариев: 0
Allegro
E |---------------|----------------|-----------------|----------|
B |---------------|-1--------------|-----------------|----------|
G |-------------2-|-------------2--|-1-----------2^4-|-2--------|
D |-2-------------|----------------|--------0--------|----------|
A |-0------3------|-0------3-------|-0---------------|-0------3-|
E |---------------|----------------|-----------------|----------|
Дата: 26-01-2014, 16:48, Добавил: Aurondel, Раздел: Брамс Иоганнес
Просмотров: 1281, Комментариев: 0
1 Am E Am Dm H
E |--------------------------------------|-1----------|
B |-----------1----------------0---------|---3--------|
G |----(2)--2--(2)--2--1-----2---2-------|-----2--0-2-|
D |---2------------------2---------2---2-|-0----------|
A |---0-------0------------3-------------|------------|
E |------(0)-----(0)-----------------0---|------------|
Дата: 26-01-2014, 16:26, Добавил: Aurondel, Раздел: Брамс Иоганнес
Просмотров: 757, Комментариев: 0
E ||-------------------|-------------------|--------------|
B ||--0-------------0--|--0-------------0--|--1----0------|
G ||*---------0--0-----|----------0--0-----|------------2-|
D ||*------0-----------|-------0-----------|--2----0------|
A ||-------2-----------|-------2-----------|------------3-|
E ||--3----------------|--3----------------|--3-----------|
Дата: 26-01-2014, 15:55, Добавил: Aurondel, Раздел: Брамс Иоганнес
Просмотров: 1141, Комментариев: 0
E |------------|----------------|
B |------3--2--|--1--1--1--0----|
G |------------|--------------3-|
D |------------|----------------|
A |------------|----------------|
E |------------|----------------|
Дата: 26-01-2014, 15:33, Добавил: Aurondel, Раздел: Бизе Жорж
Просмотров: 1886, Комментариев: 0
E |---------|---------|---------|---------|
B |---------|---------|---------|-----3-2-|
G |---------|---------|---------|---------|
D |-----3---|-----3---|-----3---|-----3---|
A |---0---0-|---0---0-|---0---0-|---0---0-|
D |-0-------|-0-------|-0-------|-0-------|
Дата: 26-01-2014, 15:17, Добавил: Aurondel, Раздел: Бизе Жорж
Просмотров: 1454, Комментариев: 0
E |-------------------|--------------------|--------------------|
B |-1----3---1--------|--------------------|-----------1--------|
G |------------2----2-|-2---0-2---3-2------|--3----0-----2------|
D |-3----------3------|-3-----------3------|-------------3----2-|
A |------3----------3-|-------3----------3-|-------3------------|
E |-------------------|--------------------|--3-----------------|
Дата: 24-01-2014, 18:48, Добавил: Aurondel, Раздел: Бизе Жорж


Популярные песни
  • Титаник
  • Пираты карибского моря
  • Все бабы суки бабы бляди
  • Над старым аулом
  • Ламбада
  • Солдат (из к/ф Мы из будущего)
  • Мальчишка-наркоман
  • За Родину
  • Девочка не надо слезы лить напрасно
  • Орленок - Звезды


  • Облако тегов
    , 8 марта, Ария, Армия, би-2, блядь, Валерий Скутин, Война, Грусть, Дворовые, ддт, Звери, Измена, Иностранные, интересное, Кино, КиШ, Красиво, Кузя, лагерное, лагерные песни, лагерь, Лирика, Любовь, Любэ, ляпис трубецкой, Многоточие, Наутилус Помпилиус, о жизни, песня, под гитару, Приколы, Разное, Расставание, Сектор газа, Слезы, Сплин, У костра, Чиж и Ко, Школа

    Показать все теги