Войти
Навигация

Мини-чат
НаписалСергей
Ребят напишите кто знает ритмический рисунок боя к песне за пол шага чайф
Написал-LioNesS-
Хотелось бы узнать на 8 марта есть норм песни??
Написал-LioNesS-
Привет
НаписалВексель
Всем привет
НаписалAragorn
привет
НаписалVurf
шалом, бездельники!)
НаписалHohner
https://www.youtube.com/watch?v=9
wG5oHsYkvA
Написалslaveckii77
slaveckii77, Я тут))))

Только зарегистрированные пользователи могут отправлять сообщения.

Наша группа

0-9  A-Z  А  Б  В  Г  Д  Е  Ж  З  И  К  Л  М  Н  О  П  Р  С  Т  У  Ф  Х  Ц  Ч  Ш  Щ  Ю  Я 

Просмотров: 1157, Комментариев: 0
строй: D G D G B E

|--1---------2---------3---------|--1-----------2-----------3-|
1 %
E |--7-----7-----7-----7-----8-----8----|-----------------------|
B |--8-----8-p7--------------------7----|-----------------------|
G |--7----------10-----9-p8--7--------7-|--повторить 1----------|
D |--------------------------7----------|-----------------------|
G |--0-----------------7-----------7----|-----------------------|
D |-------------------------------------|-----------------------|
Дата: 19-12-2013, 14:48, Добавил: Aurondel, Раздел: Албениз Исаак
Просмотров: 4536, Комментариев: 0
E |--7-------7-------7-------|-7-------7-------7-------|
B |--9-------9-------9-------|-9-------9-------9-------|
G |--9-----------------------|-----8---6-------6---8---|
D |--9-----------------------|-------------9-----------|
A |--7-----------------------|-------------------------|
E |--0-----------------------|-------------------------|
Дата: 9-02-2013, 12:58, Добавил: Aurondel, Раздел: Албениз Исаак
Просмотров: 4184, Комментариев: 0
Темп : 100
Размер : 3/4

E |-0-----------------|-0-----------------|-0--------------|
B |-------------------|-------------------|----------------|
G |---4-2-0-2---------|---4-2-0-2---------|---4-2-0-2------|
D |--------------3----|--------------3----|--------------3-|
A |---------3---------|---------3---------|---------3------|
E |-0-----------------|-0-----------------|-0--------------|
Дата: 5-02-2013, 22:22, Добавил: Aurondel, Раздел: Албениз Исаак


Популярные песни
  • Титаник
  • Пираты карибского моря
  • Все бабы суки бабы бляди
  • Над старым аулом
  • Ламбада
  • Солдат (из к/ф Мы из будущего)
  • Мальчишка-наркоман
  • За Родину
  • Девочка не надо слезы лить напрасно
  • Орленок - Звезды


  • Облако тегов
    , 8 марта, Ария, Армия, би-2, блядь, Валерий Скутин, Война, Грусть, Дворовые, ддт, Звери, Измена, Иностранные, интересное, Кино, КиШ, Красиво, Кузя, лагерное, лагерь, Лирика, Любовь, Любэ, ляпис трубецкой, Многоточие, Наутилус Помпилиус, о жизни, песни, песня, под гитару, Приколы, Разное, Расставание, Сектор газа, Слезы, Сплин, У костра, Чиж и Ко, Школа

    Показать все теги