Войти
Навигация

Мини-чат
Написалzhelinscky
привет всем заходите на портал гитаристов akkordmovi.com
Написалzhelinscky
всем привет заходите на новый портал гитаристов [leech=http://akkordmovi.com]akko
rdmovi.com[/leech]
НаписалВексель
Всем привет
НаписалAragorn
привет
НаписалVurf
шалом, бездельники!)
НаписалHohner
https://www.youtube.com/watch?v=9
wG5oHsYkvA
Написалslaveckii77
slaveckii77, Я тут))))
Написалslaveckii77
Где все ??? ЭЭЭ народ?
Написалslaveckii77
Где все ??? ЭЭЭ народ?

Только зарегистрированные пользователи могут отправлять сообщения.

Наша группа

0-9  A-Z  А  Б  В  Г  Д  Е  Ж  З  И  К  Л  М  Н  О  П  Р  С  Т  У  Ф  Х  Ц  Ч  Ш  Щ  Ю  Я 

Просмотров: 729, Комментариев: 0
E |-------------------------------|-----------------2---------5-|
B |-------------------------------|-------3--------------3------|
G |*--------------------------2---|------------2----------------|
D |*------0---------4-------------|--0--------------------------|
A |------------0---------5--------|-----------------------------|
D |--0----------------------------|-----------------------------|
Дата: 9-01-2014, 16:15, Добавил: Aurondel, Раздел: Албениз Исаак
Просмотров: 697, Комментариев: 0
1 2 3
E ||-------------------|------------------|---------------------|
B ||-------------0-----|------------------|---------------------|
G ||-------0--2--------|----0-------------|---------------------|
D ||----2--------------|-------2----------|---0--3--2--0---3--2-|
A ||-3-----------------|----------3-------|---------------------|
E ||-------------------|------------------|---------------------|
Дата: 9-01-2014, 14:19, Добавил: Aurondel, Раздел: Албениз Исаак
Просмотров: 677, Комментариев: 0
1 2
E ||----1-----4--------1-----4-----|----0-----------0---------|
B ||----1-5-----6-5----1-5-----6-5-|----1-----1-----1-------1-|
G ||--------4--------------4-------|----------2-----------2---|
D ||----2--------------2-----------|------1-2---------1-2-----|
A ||-0--------5-----0--------5-----|-0-----------0------------|
D ||-------------------------------|--------------------------|
Дата: 9-01-2014, 13:51, Добавил: Aurondel, Раздел: Албениз Исаак
Просмотров: 958, Комментариев: 0
E ||--------------------|--------------------|
B ||-------------2------|-------------2------|
G ||----3--2-------3--2-|----3--2-------3--2-|
D ||----3-----2---------|----3-----2---------|
A ||-------0----------0-|-------0----------0-|
D ||-0------------------|-0------------------|
Дата: 6-01-2014, 20:26, Добавил: Aurondel, Раздел: Албениз Исаак
Просмотров: 638, Комментариев: 0
E |---|---|---|
B |---|---|---|
G |---|---|---|
D |---|---|---|
A |-3-|-3-|-3-|
D |-3-|-3-|-3-|
Дата: 6-01-2014, 19:57, Добавил: Aurondel, Раздел: Албениз Исаак
Просмотров: 1309, Комментариев: 0
E |-------------------------|--------------------------|
B |--0---0----0---0---0----0|---0---0----0---0---0----0|
G |-------------------------|--------------------------|
D |----9---10---7---9-------|-----9---10---7---9-------|
A |7--------------------10--|-7--------------------10--|
E |-------------------------|--------------------------|
1 2
Дата: 21-12-2013, 19:54, Добавил: Aurondel, Раздел: Албениз Исаак
Просмотров: 1216, Комментариев: 0
E |----------------------------|----------------------------|
B |----0---0----0---0---0----0-|---0---0----0---0---0----0--|
G |----------------------------|----------------------------|
D |------9===10===7===9===-----|-----9===10===7===9===------|
A |--7===-----------------10===|-7===-----------------10===-|
E |----------------------------|----------------------------|
Дата: 21-12-2013, 19:31, Добавил: Aurondel, Раздел: Албениз Исаак


Популярные песни
  • Титаник
  • Пираты карибского моря
  • Все бабы суки бабы бляди
  • Над старым аулом
  • Ламбада
  • Солдат (из к/ф Мы из будущего)
  • Мальчишка-наркоман
  • За Родину
  • Девочка не надо слезы лить напрасно
  • Орленок - Звезды


  • Облако тегов
    , 8 марта, Ария, Армия, би-2, блядь, Война, гитара, Грусть, Дворовые, ддт, Звери, Измена, Иностранные, интересное, Кино, КиШ, Красиво, Кузя, лагерное, лагерные песни, лагерь, Лирика, Любовь, Любэ, Многоточие, Море, Наутилус Помпилиус, о жизни, песня, под гитару, Приколы, Разное, Расставание, Сектор газа, Слезы, Сплин, У костра, Чиж и Ко, Школа

    Показать все теги