Войти
Навигация

Мини-чат
НаписалСергей
Ребят напишите кто знает ритмический рисунок боя к песне за пол шага чайф
Написал-LioNesS-
Хотелось бы узнать на 8 марта есть норм песни??
Написал-LioNesS-
Привет
НаписалВексель
Всем привет
НаписалAragorn
привет
НаписалVurf
шалом, бездельники!)
НаписалHohner
https://www.youtube.com/watch?v=9
wG5oHsYkvA
Написалslaveckii77
slaveckii77, Я тут))))

Только зарегистрированные пользователи могут отправлять сообщения.

Наша группа

0-9  A-Z  А  Б  В  Г  Д  Е  Ж  З  И  К  Л  М  Н  О  П  Р  С  Т  У  Ф  Х  Ц  Ч  Ш  Щ  Ю  Я 

Просмотров: 1770, Комментариев: 0
Вступление, оно же проигрыш между куплетами:
Am G C Dm Am G C -- 2 раза.

Am C Dm
Когда ты грустишь - мне хочется петь,
G Am
И так вот всегда.
Am C Dm
Упреком ли словом захочешь задеть -
G Am
Так я не горда.
Дата: 21-12-2012, 15:13, Добавил: Aurondel, Раздел: Flёur
Просмотров: 2178, Комментариев: 0
Куплет:

Am Fmaj7
Я знаю: есть конец у всех дорог
Am Fmaj7
Я знаю: есть конец у всех мелодий
Em C
Струится между пальцами песок
D Am
Я чувствую, как все уходит...
Дата: 21-12-2012, 13:33, Добавил: Aurondel, Раздел: Flёur
Просмотров: 1083, Комментариев: 0
Intro:
Bbm Ab Gb Ab


Bbm Fm
Скажи: ничего не было, нет.
Bbm
Может быть, я поверю в это,
Fm
Если будет сказано с верой.
Gb
И не смогу найти двери,
Дата: 21-12-2012, 13:15, Добавил: Aurondel, Раздел: Flёur
Просмотров: 1942, Комментариев: 0
Intro/Bridge 1:

E -||---------0-------|-----------------|---------0-------|-------4----------||
B -||-----------3-----|-------0---------|-----------3-----|-----3---5--------||
G -||-------4-----4---|---------1-------|-------4-----4---|---4-------------*||
D -||-----4---------4-|-----2-----------|-----4---------4-|-0---------------*||
A -||-2---------------|---2-----------0-|-2---------------|---------------0--||
E -||-----------------|-0---------------|-----------------|------------------||


Куплет:

E -|---------0-------|---------0-------|---------0-------|---------0-------|
B -|-----------3-----|----------(0)----|-----------3-----|-------3---3-----|
G -|-------4-----4---|-------1-----1---|-------4-----4---|-----4-------4---|
D -|-----4---------4-|-----2---------2-|-----4---------4-|-5-------------0-|
A -|-2---------------|---2-------------|-2---------------|-----------------|
E -|-----------------|-0---------------|-----------------|-----------------|
Дата: 21-12-2012, 13:07, Добавил: Aurondel, Раздел: Flёur
Просмотров: 1705, Комментариев: 0
intro:
1|---------0-------|-------------|---------0-------|-------4-0---|
2|-----------3-----|-------0-----|-----------3-----|-----3-------|
3|-------4-----4---|---------1---|-------4-----4---|---2---------|
4|-----4---------4-|-----2-------|-----4---------4-|-0-----------|
5|-0-2-------------|---2---------|-0-2-------------|-------------|
6|-----------------|-0-----------|-----------------|-------------|


1|---------0-------|---------------|---------0-------|-------4-0-----|
2|-----------3-----|-------0-------|-----------3-----|-----3-----0---|
3|-------4-----4---|---------1-----|-------4-----4---|---2---------2-|
4|-----4---------4-|-----2-----2---|-----4---------4-|-0-------------|
5|-0-2-------------|---2-----------|-0-2-------------|---------------|
6|-----------------|-0-----------0-|-----------------|---------------|


Припев играется подходящим боем.
Куплет: 7-ми звучное арпеджио
Дата: 21-12-2012, 13:01, Добавил: Aurondel, Раздел: Flёur
Просмотров: 5055, Комментариев: 0
Вместе с запахом выжженых
Солнцем полей,
Тёмной птицею, в сердце
Входит новая осень.
Ты плетёшь свой венок
Из траурных лент,
Из увядших цветов
И почерневших колосьев.
Но кто знает, чем обернутся
Дата: 21-12-2012, 12:55, Добавил: Aurondel, Раздел: Flёur
Просмотров: 1293, Комментариев: 0
Intro:
D F# Bm A
D Em G Bm


D A Bm
Стоит ли мне говорить о том
D A Bm
Что написано в вечерних газетах
Em6 Em G
Стоит ли мне повторять об одном
Дата: 21-12-2012, 12:40, Добавил: Aurondel, Раздел: Flёur


Популярные песни
  • Титаник
  • Пираты карибского моря
  • Все бабы суки бабы бляди
  • Над старым аулом
  • Ламбада
  • Солдат (из к/ф Мы из будущего)
  • Мальчишка-наркоман
  • За Родину
  • Девочка не надо слезы лить напрасно
  • Орленок - Звезды


  • Облако тегов
    , 8 марта, Ария, Армия, би-2, блядь, Валерий Скутин, Война, Грусть, Дворовые, ддт, Звери, Измена, Иностранные, интересное, Кино, КиШ, Красиво, Кузя, лагерное, лагерь, Лирика, Любовь, Любэ, ляпис трубецкой, Многоточие, Наутилус Помпилиус, о жизни, песни, песня, под гитару, Приколы, Разное, Расставание, Сектор газа, Слезы, Сплин, У костра, Чиж и Ко, Школа

    Показать все теги