Войти
Навигация

Мини-чат
Написал-LioNesS-
23 февраля 2017
Хотелось бы узнать на 8 марта есть норм песни??
Написал-LioNesS-
23 февраля 2017
Привет
НаписалКурт ваш любимий
27 января 2017
привет
НаписалВексель
7 августа 2016
Всем привет
НаписалAragorn
4 апреля 2016
привет
НаписалVurf
1 марта 2016
шалом, бездельники!)
НаписалHohner
8 февраля 2016
https://www.youtube.com/watch?v=9
wG5oHsYkvA
НаписалHohner
8 февраля 2016
smile-03
Написалslaveckii77
24 января 2016
slaveckii77, Я тут))))
Написалslaveckii77
24 января 2016
Где все ??? ЭЭЭ народ?

Только зарегистрированные пользователи могут отправлять сообщения.

Наша группа

0-9  A-Z  А  Б  В  Г  Д  Е  Ж  З  И  К  Л  М  Н  О  П  Р  С  Т  У  Ф  Х  Ц  Ч  Ш  Щ  Ю  Я 

Просмотров: 143, Комментариев: 0
E
Arrested on charges of unemployment,
E
he was sitting in the witness stand
A
The judge's wife called up the district attorney
B E
Said you free that brown eyed man
Дата: 11-12-2016, 14:12, Добавил: Aurondel, Раздел: Иностранные
Просмотров: 144, Комментариев: 0
D
e|---------|-10-10-10-10-10-10-10-10-|-10---------------------|
B |---10-12-|-10-10-10-10-10-10-10-10-|-10-13-12-10-10---------|
G |11-------|-------------------------|----13-12-10-11---------|
D |---------|-------------------------|----------------12-10---|
A |---------|-------------------------|----------------------12|
E |---------|-------------------------|------------------------|
Дата: 11-12-2016, 13:54, Добавил: Aurondel, Раздел: Иностранные
Просмотров: 146, Комментариев: 0
Verse 1 (Breaks 1st & 2nd Verse)
B
They say the joint was rockin'

a goin' 'round and round
E B
Yeah reelin' and a rockin' what a crazy sound
Дата: 11-12-2016, 12:44, Добавил: Aurondel, Раздел: Иностранные
Просмотров: 131, Комментариев: 0
D7 G
Yeah 'n' I'm doin' all right in school.
G
They ain't said I broke no rule.
G C
I ant never been in Dutch.
C G
I don't browse around too much
Дата: 11-12-2016, 12:30, Добавил: Aurondel, Раздел: Иностранные
Просмотров: 172, Комментариев: 0
E
E |-0-0-0-0-0-0-0-0-0-0-0-0-0-0-0-0-0-0-0-0-0-0-0-0-0-0-0-0-0-0-|
A |-2-2-4-2-2-2-4-2-2-2-4-2-2-2-4-2-2-2-4-2-2-2-4-2-2-2-4-2-2-2-|
D |-------------------------------------------------------------|
G |-------------------------------------------------------------|
B |-------------------------------------------------------------|
E |-------------------------------------------------------------|
Дата: 11-12-2016, 12:24, Добавил: Aurondel, Раздел: Иностранные
Просмотров: 143, Комментариев: 0
Guitar 1
e|-----|
B|-----|
G|-----|
D|-----|
A|-----|
E|-0-2-|
Дата: 11-12-2016, 12:00, Добавил: Aurondel, Раздел: Иностранные
Просмотров: 151, Комментариев: 0
Verse:
| A E/G# |F#m A | D A | E |
Would you know my name if I saw you in Heaven


| A E/G# |F#m A | D A | E |
Would it be the same if I saw you in Heaven
Дата: 11-12-2016, 11:54, Добавил: Aurondel, Раздел: Иностранные



Популярные песни
  • Титаник
  • Пираты карибского моря
  • Все бабы суки бабы бляди
  • Над старым аулом
  • Ламбада
  • Солдат (из к/ф Мы из будущего)
  • За Родину
  • Мальчишка-наркоман
  • Девочка не надо слезы лить напрасно
  • Орленок - Звезды


  • Облако тегов
    , 8 марта, Ария, Армия, би-2, блядь, Война, гитарное, Грусть, Дворовые, ддт, Звери, Измена, Иностранные, интересное, Кино, КиШ, Красиво, Кузя, лагерное, лагерь, Лирика, Любовь, Любэ, ляпис, Многоточие, Наутилус Помпилиус, новости, о жизни, песня, под гитару, Приколы, Разное, Расставание, Сектор газа, Слезы, Сплин, У костра, Чиж и Ко, Школа

    Показать все теги