Войти
Навигация

Мини-чат
Написал-LioNesS-
23 февраля 2017
Хотелось бы узнать на 8 марта есть норм песни??
Написал-LioNesS-
23 февраля 2017
Привет
НаписалКурт ваш любимий
27 января 2017
привет
НаписалВексель
7 августа 2016
Всем привет
НаписалAragorn
4 апреля 2016
привет
НаписалVurf
1 марта 2016
шалом, бездельники!)
НаписалHohner
8 февраля 2016
https://www.youtube.com/watch?v=9
wG5oHsYkvA
НаписалHohner
8 февраля 2016
smile-03
Написалslaveckii77
24 января 2016
slaveckii77, Я тут))))
Написалslaveckii77
24 января 2016
Где все ??? ЭЭЭ народ?

Только зарегистрированные пользователи могут отправлять сообщения.

Наша группа

0-9  A-Z  А  Б  В  Г  Д  Е  Ж  З  И  К  Л  М  Н  О  П  Р  С  Т  У  Ф  Х  Ц  Ч  Ш  Щ  Ю  Я 

Просмотров: 135, Комментариев: 0
E |-------8-8-8-8-8-------------------|
B |-5s8s7-8-8-8-8-8--5s8s7--8-8-8-8-8-|
G |-------------------------9-9-9-9-9-|
D |-----------------------------------|
A |-----------------------------------|
E |-----------------------------------|
Дата: 12-12-2016, 17:08, Добавил: Aurondel, Раздел: Иностранные
Просмотров: 166, Комментариев: 0
INTRO:

E |-14-14-14-14--14-^17-16-14-| Repeat once
G |---------------------------|
B |---------------------------|
D |---------------------------|
A |---------------------------|
E |---------------------------|
Дата: 12-12-2016, 17:05, Добавил: Aurondel, Раздел: Иностранные
Просмотров: 159, Комментариев: 0
Intro:

E -----------14--13-------------12--10------12--12--12-------
B ------------------------------------------14--14--14-------
G ---13--14----------13--12-----------------14--14--14-------
D ------------------------------------------14--14--14-------
A ------------------------------------------12--12--12-------
E -----------------------------------------------------------
Дата: 12-12-2016, 16:59, Добавил: Aurondel, Раздел: Иностранные
Просмотров: 174, Комментариев: 0
Intro

Gtr I
E |--------|8-8-8-8-8--------|8-8-8-8-8--------|8-8-8-8-8-8-8-8|
B |----8-10|8-8-8-8-8----8-10|8-8-8-8-8----8-10|8-8-8-8-8-8-8-8|
G |-/9-----|9---------/9-----|8-8-8-8-8-/9-----|9--------------|
D |--------|-----------------|-----------------|---------------|
A |--------|-----------------|-----------------|---------------|
E |--------|-----------------|-----------------|---------------|
Дата: 12-12-2016, 16:52, Добавил: Aurondel, Раздел: Иностранные
Просмотров: 151, Комментариев: 0
INTRO:
------

E |------12---12----11---10--8-8--|--------------|
B |--5/8----8-----7----6-----5-5--| / = slide up-|
G |-------------------------------|--------------|
D |-------------------------------|--------------|
A |-------------------------------|--------------|
E |-------------------------------|--------------|
Дата: 12-12-2016, 16:06, Добавил: Aurondel, Раздел: Иностранные
Просмотров: 175, Комментариев: 0
Intro:

E |---------14--13-------------12--10------12--12--12-|
B |----------------------------------------14--14--14-|
G |-13--14----------13--12-----------------14--14--14-|
D |----------------------------------------14--14--14-|
A |----------------------------------------12--12--12-|
E |---------------------------------------------------|
Дата: 11-12-2016, 14:24, Добавил: Aurondel, Раздел: Иностранные
Просмотров: 172, Комментариев: 0
C
She drew out all her money at the Southern Trust

And put her little boy upon a Greyhound bus
F
Leaving Louisiana for the golden west
C
Down came the tears from her happiness
Дата: 11-12-2016, 14:18, Добавил: Aurondel, Раздел: Иностранные



Популярные песни
  • Титаник
  • Пираты карибского моря
  • Все бабы суки бабы бляди
  • Над старым аулом
  • Ламбада
  • Солдат (из к/ф Мы из будущего)
  • За Родину
  • Мальчишка-наркоман
  • Девочка не надо слезы лить напрасно
  • Орленок - Звезды


  • Облако тегов
    , 8 марта, Ария, Армия, би-2, блядь, Война, гитарное, Грусть, Дворовые, ддт, Звери, Измена, Иностранные, интересное, Кино, КиШ, Красиво, Кузя, лагерное, лагерь, Лирика, Любовь, Любэ, ляпис, Многоточие, Наутилус Помпилиус, новости, о жизни, песня, под гитару, Приколы, Разное, Расставание, Сектор газа, Слезы, Сплин, У костра, Чиж и Ко, Школа

    Показать все теги