Войти
Навигация

Мини-чат
Написал-LioNesS-
Хотелось бы узнать на 8 марта есть норм песни??
Написал-LioNesS-
Привет
НаписалВексель
Всем привет
НаписалAragorn
привет
НаписалVurf
шалом, бездельники!)
НаписалHohner
https://www.youtube.com/watch?v=9
wG5oHsYkvA
Написалslaveckii77
slaveckii77, Я тут))))
Написалslaveckii77
Где все ??? ЭЭЭ народ?

Только зарегистрированные пользователи могут отправлять сообщения.

Наша группа

0-9  A-Z  А  Б  В  Г  Д  Е  Ж  З  И  К  Л  М  Н  О  П  Р  С  Т  У  Ф  Х  Ц  Ч  Ш  Щ  Ю  Я 

Просмотров: 149, Комментариев: 0
Gtr I
E |-------------|------------|-------------||----------------|
B |-------------|-6--6-------|-6----6----6-||o----3-----3--o-|
G |----------3--|-5--5----3--|-5----5----5-||-----3-----3----|
D |----3h=5-----|------------|-------------||-----3-----3----|
A |-------------|------------|-------------||o-1-----------o-|
E |-------------|------------|-------------||--------1-------|
Дата: 12-12-2016, 22:53, Добавил: Aurondel, Раздел: Иностранные
Просмотров: 156, Комментариев: 0
A / / / 2 / / /
CHORUS:
Maybellene, why can't you be true
D7 A
Oh, Maybellene, why can't you be true
E7 D7 A
You've started back doin' the things you used to do
Дата: 12-12-2016, 22:20, Добавил: Aurondel, Раздел: Иностранные
Просмотров: 153, Комментариев: 0
intro:
E |--------------------------|
B |--------------------------|
G |----------10-10---10b-10b-|
D |------8---10-10-8-10b-10b-|
A |-8-10---------------------|
E |--------------------------|
Дата: 12-12-2016, 17:58, Добавил: Aurondel, Раздел: Иностранные
Просмотров: 166, Комментариев: 0
Intro
Gtr I
E |----|-8-8-8-8-8-----------|
B |-5/-|-8-8-8-8-8-10-8------|
G |-5/-|-----------10-8h9----|
D |----|------------------10-|
A |----|---------------------|
E |----|---------------------|
Дата: 12-12-2016, 17:52, Добавил: Aurondel, Раздел: Иностранные
Просмотров: 146, Комментариев: 0
E |-------5s6-6-6-5s6-6-6-5s6-6-6---------------|
B |---6-8-5s6-6-6-5s6-6-6-5s6-6-6-9-6-----------|
G |-7---------------------------------8-6h7-----|
D |-----------------------------------------8-8-|
A |---------------------------------------------|
E |---------------------------------------------|
Дата: 12-12-2016, 17:33, Добавил: Aurondel, Раздел: Иностранные
Просмотров: 175, Комментариев: 0
INTRO:
e|------------|6--6--6--6--6--6--6--6-|-6----------------------|
b|-------6--8-|6--6--6--6--6--6--6--6-|-6--9--8--6-------------|
g|-6--7-------|-----------------------|-------------6--7-------|
d|------------|-----------------------|-------------------8--8-|
a|------------|-----------------------|------------------------|
e|------------|-----------------------|------------------------|
Дата: 12-12-2016, 17:18, Добавил: Aurondel, Раздел: Иностранные
Просмотров: 320, Комментариев: 0
A
Deep down in Louisiana, close to New Orleans,
A
Way back up in the woods among the evergreens,
D
There stood a log cabin made of earth and wood
A
Where lived a country boy named Johnny B. Goode
Дата: 12-12-2016, 17:13, Добавил: Aurondel, Раздел: Иностранные



Популярные песни
  • Титаник
  • Пираты карибского моря
  • Все бабы суки бабы бляди
  • Над старым аулом
  • Ламбада
  • Солдат (из к/ф Мы из будущего)
  • За Родину
  • Мальчишка-наркоман
  • Девочка не надо слезы лить напрасно
  • Орленок - Звезды


  • Облако тегов
    , 8 марта, Noize MC, Агата Кристи, Ария, Армия, би-2, блядь, Война, Грусть, Дворовые, ддт, Звери, Измена, Иностранные, интересное, Кино, КиШ, Красиво, Кузя, лагерное, лагерь, Лирика, Любовь, Любэ, Мельница, Многоточие, Наутилус Помпилиус, о жизни, песня, под гитару, Приколы, Разное, Расставание, Сектор газа, Слезы, Сплин, У костра, Чиж и Ко, Школа

    Показать все теги