Войти
Навигация

Мини-чат
Написал-LioNesS-
Хотелось бы узнать на 8 марта есть норм песни??
Написал-LioNesS-
Привет
НаписалВексель
Всем привет
НаписалAragorn
привет
НаписалVurf
шалом, бездельники!)
НаписалHohner
https://www.youtube.com/watch?v=9
wG5oHsYkvA
Написалslaveckii77
slaveckii77, Я тут))))
Написалslaveckii77
Где все ??? ЭЭЭ народ?

Только зарегистрированные пользователи могут отправлять сообщения.

Наша группа

0-9  A-Z  А  Б  В  Г  Д  Е  Ж  З  И  К  Л  М  Н  О  П  Р  С  Т  У  Ф  Х  Ц  Ч  Ш  Щ  Ю  Я 

Просмотров: 165, Комментариев: 0
G |------------------------------|------------------------------|
D |--------------------0---2---0-|---------------------0---2--0-|
A |-------------2----------------|-------------2----------------|
E |-3---3---3-------3------------|-3---3---3-------3------------|
Дата: 14-12-2016, 18:32, Добавил: Aurondel, Раздел: Иностранные
Просмотров: 155, Комментариев: 0
this is a long song so here we go
this is the intro

E |---------10-10-10-10-10-10-10-10--13p12-10----------|
B |---10-12-10-10-10-10-10-10-10-10-----------13p12-10-|
G |-11-------------------------------------------------|
D | ----------------------------------------------------|
A |----------------------------------------------------|
E |----------------------------------------------------|
Дата: 14-12-2016, 18:21, Добавил: Aurondel, Раздел: Иностранные
Просмотров: 221, Комментариев: 0
E
I'm gonna write a little letter,
E
Gonna mail it to my local DJ.
A
It's a rockin' rhythm record
E
I want my jockey to play.
Дата: 14-12-2016, 18:06, Добавил: Aurondel, Раздел: Иностранные
Просмотров: 158, Комментариев: 0
A7
Just let me hear some of that...

CHORUS:
D
Rock and roll music
Any old way you choose it
G
It's got a back beat, you can't lose it
Дата: 14-12-2016, 17:50, Добавил: Aurondel, Раздел: Иностранные
Просмотров: 150, Комментариев: 0
E |--------------------------------------------------------------------------|
B |-----15-15-15-15-15-----15-15-15-15-15-----15-15-15-15-15-----15-15-15-15-|
G |-/16-16-16-16-16-16-/16-16-16-16-16-16-/16-16-16-16-16-16-/16-16-16-16-16-|
D |-/17-17-17-17-17-17-/17-17-17-17-17-17-/17-17-17-17-17-17-/17-17-17-17-17-|
A |--------------------------------------------------------------------------|
E |--------------------------------------------------------------------------|
Дата: 14-12-2016, 17:44, Добавил: Aurondel, Раздел: Иностранные
Просмотров: 146, Комментариев: 0
Intro
Gtr I
E |-10-10-10-10-10-10-10-10-10-10-10-10-|-10-|
B |-11-11-11-11-11-11-11-11-11-11-11-11-|-11-|
G |-11-11-11-11-11-11-11-11-11-11-11-11-|-11-|
D |-12-12-12-12-12-12-12-12-12-12-12-12-|-12-|
A |-------------------------------------|----|
E |-------------------------------------|----|
Дата: 14-12-2016, 17:06, Добавил: Aurondel, Раздел: Иностранные
Просмотров: 208, Комментариев: 0
Verse 1 ( Intro D+ )
G
Riding along in my automobile

My baby beside me at the wheel
C
I stole a kiss at the turn of a mile
G
my curiosity running wild
Дата: 13-12-2016, 12:47, Добавил: Aurondel, Раздел: Иностранные


Популярные песни
  • Титаник
  • Пираты карибского моря
  • Все бабы суки бабы бляди
  • Над старым аулом
  • Ламбада
  • Солдат (из к/ф Мы из будущего)
  • За Родину
  • Мальчишка-наркоман
  • Девочка не надо слезы лить напрасно
  • Орленок - Звезды


  • Облако тегов
    , 8 марта, Noize MC, Агата Кристи, Ария, Армия, би-2, блядь, Война, Грусть, Дворовые, ддт, Звери, Измена, Иностранные, интересное, Кино, КиШ, Красиво, Кузя, лагерное, лагерь, Лирика, Любовь, Любэ, Мельница, Многоточие, Наутилус Помпилиус, о жизни, песня, под гитару, Приколы, Разное, Расставание, Сектор газа, Слезы, Сплин, У костра, Чиж и Ко, Школа

    Показать все теги