Войти
Навигация

Мини-чат
Написал-LioNesS-
Хотелось бы узнать на 8 марта есть норм песни??
Написал-LioNesS-
Привет
НаписалВексель
Всем привет
НаписалAragorn
привет
НаписалVurf
шалом, бездельники!)
НаписалHohner
https://www.youtube.com/watch?v=9
wG5oHsYkvA
Написалslaveckii77
slaveckii77, Я тут))))
Написалslaveckii77
Где все ??? ЭЭЭ народ?

Только зарегистрированные пользователи могут отправлять сообщения.

Наша группа

0-9  A-Z  А  Б  В  Г  Д  Е  Ж  З  И  К  Л  М  Н  О  П  Р  С  Т  У  Ф  Х  Ц  Ч  Ш  Щ  Ю  Я 

Просмотров: 169, Комментариев: 0
Intro: (Palm mute most of thge open E’s as close to the end of the strings as
possible with right hand)

E |----------------------|-------------------------|------------------------|
B |----------------------|-------------------------|------------------------|
G |----------------------|-------------------------|---2--2--2--2--2--------|
D |----------------------|-------------------------|---2--2--2--2--2--------|
A |----------------2-----|-------------------------|---0--0--0--0--0--------|
E |-0--0--0--0---0---3-5-|-0-0--0--0--0--0--0-3--5-|-0---------------0-3--5-|
Дата: 15-12-2016, 12:48, Добавил: Aurondel, Раздел: Иностранные
Просмотров: 217, Комментариев: 0
Intro.
Chords: Am - Em - Am - Em - Am - Em - Am - Em (Palm Mute) Am - Em - Am - Em

Verse 1:
Am Em Am Em
She never sleeps at night she's quiet but she dreams.
Am Em Am Em
Her mind is racing, she plans, she plots, she schemes.
Am Em Am Em
Another idea.
Дата: 15-12-2016, 11:22, Добавил: Aurondel, Раздел: Иностранные
Просмотров: 211, Комментариев: 0
Intro
e|-------------12--12--11--10--------8-8-|
B |-------------------------------3s5---5-|
G |---------9s12--12--11--10--------------|
D |---------------------------------------|
A |---------------------------------------|
E |---------------------------------------|
Дата: 14-12-2016, 22:48, Добавил: Aurondel, Раздел: Иностранные
Просмотров: 186, Комментариев: 0
intr. G C D G

G
TULANЕ AND JOHNNY OPENED AN NOVELTY SHOP
BACK UNDER THЕ CORNER IT WAS А CREAM OF THЕ CROP
C
EVERY THING WAS CLICKING AND THЕ BUSINESS WAS GOOD
G
?TIL ONЕ DAY LO BEHOLD AN OFFICER STOOD
Дата: 14-12-2016, 21:53, Добавил: Aurondel, Раздел: Иностранные
Просмотров: 183, Комментариев: 0
CHORUS 1:
G G7 C
They're really rockin' in Boston, Pittsburgh, PA
G G7 C
Deep in the heart of Texas and round the Frisco Bay
F C
All over St. Louis, way down in New Orleans
G G7 C
All the cats wanna dance with Sweet Little 16
Дата: 14-12-2016, 21:44, Добавил: Aurondel, Раздел: Иностранные
Просмотров: 170, Комментариев: 0
G
Up in the mornin' and off to school
The teacher is teachin' the golden rule
C
American hist'ry and practical math
G
You're studyin' hard, hopin' to pass
Дата: 14-12-2016, 21:31, Добавил: Aurondel, Раздел: Иностранные
Просмотров: 201, Комментариев: 0
INTRO:

E |-/8--8--8--8--8-----------|-8-----------8-----8---8---8--11b-|
B |-/8--8--8--8--8--10-------|-8--10-------8-----8---8---8--11b-|
G |---------------------8--9-|--------8h9-----9-----------------|
D |-----------------------10-|---------------10-----------------|
A |--------------------------|----------------------------------|
E |--------------------------|----------------------------------|
Дата: 14-12-2016, 21:23, Добавил: Aurondel, Раздел: Иностранные


Популярные песни
  • Титаник
  • Пираты карибского моря
  • Все бабы суки бабы бляди
  • Над старым аулом
  • Ламбада
  • Солдат (из к/ф Мы из будущего)
  • За Родину
  • Мальчишка-наркоман
  • Девочка не надо слезы лить напрасно
  • Орленок - Звезды


  • Облако тегов
    , 8 марта, Noize MC, Агата Кристи, Ария, Армия, би-2, блядь, Война, Грусть, Дворовые, ддт, Звери, Измена, Иностранные, интересное, Кино, КиШ, Красиво, Кузя, лагерное, лагерь, Лирика, Любовь, Любэ, Мельница, Многоточие, Наутилус Помпилиус, о жизни, песня, под гитару, Приколы, Разное, Расставание, Сектор газа, Слезы, Сплин, У костра, Чиж и Ко, Школа

    Показать все теги