Войти
Навигация

Мини-чат
Написал-LioNesS-
Хотелось бы узнать на 8 марта есть норм песни??
Написал-LioNesS-
Привет
НаписалВексель
Всем привет
НаписалAragorn
привет
НаписалVurf
шалом, бездельники!)
НаписалHohner
https://www.youtube.com/watch?v=9
wG5oHsYkvA
Написалslaveckii77
slaveckii77, Я тут))))
Написалslaveckii77
Где все ??? ЭЭЭ народ?

Только зарегистрированные пользователи могут отправлять сообщения.

Наша группа

0-9  A-Z  А  Б  В  Г  Д  Е  Ж  З  И  К  Л  М  Н  О  П  Р  С  Т  У  Ф  Х  Ц  Ч  Ш  Щ  Ю  Я 

Аккорды к песне Cohen Leonard - A Singer Must Die

Просмотров: 460, Комментариев: 0
 (голосов: 8)




Транспонировать:
Chords:

Asus2 : x02200
Cmaj7 : x32000
Dsus2 : xx0230
E/b : x22100

Intro: Bb

Bb Asus2
Now the courtroom is quiet, but who will confess
Bb Asus2
Is it true you betrayed us, the answer is yes
Cmaj7 F
Then read me the list of the crimes that are mine
Dsus2 G
I will ask for the mercy that you love to decline
C E/b
And all the ladies go moist, and the judge has no choice
Am G
А singer must die for the lie in his voice

And I thank you, I thank you for doing your duty
You keepers of truth, you guardians of beauty
Your vision is right, my vision is wrong
I'm sorry for smudging the air with my song
La la la la la la la la la la la la la la la la
La la

Oh the night it is thick, my defences are hid
In the clothes of a woman I would like to forgive
In the rings of her silk, in the hinge of her thighs
Where I have to go begging in beauty's disguise
Oh goodnight, goodnight, my night after night
My night after night, after night, after night, after night

And I am so afraid that I listen to you
Your sun glassed protectors they do that to you
It's their ways to detain, it's their ways to disgrace
Their knee in your balls and their fist in your face
Yes and long live the state by whoever it's made
Sir, I didn't see nothing, I was just getting home late

Bb
La la la la la la la la
Asus2
La la la la la
Bb
La la la la la
Asus2
La la la la la la
Cmaj7
La la la la la la la
F
La la la la la la
Dsus2
La la la la la la la la
G
La la la la la la la la la la la...




Intro:

Bb
| . . . . . | . . . . .
E |---------------------------------------------------|
B |----------3-----------3-----------3-------3---3----|
G |----------3-----------3-----------3-------3---3----|
D |--------3---3-------3---3-------3---3---3---3---3--|
A |--1-----------------------1------------------------|
E |--------------1-----------------------1------------|


Verse:

Bb Asus2
| . . . . . | . . . . .
E |---------------------------------------------------|
B |------3---3-------3---3-------0---0-------0---0----|
G |------3---3-------3---3-------2---2-------2---2----|
D |----3---3---3---3---3---0---2---2---2---2---2---0--|
A |--1-----------------------0------------------------|
E |--------------1-----------------------0------------|

Bb Asus2
| . . . . . | . . . . .
E |---------------------------------------------------|
B |------3---3-------3---3-------0---0-------0---0----|
G |------3---3-------3---3-------2---2-------2---2----|
D |----3---3---3---3---3---0---2---2---2---2---2---0--|
A |--1-----------------------0------------------------|
E |--------------1-----------------------0------------|

Cmaj7 F
| . . . . . | . . . . .
E |---------------------------------------------------|
B |------0---0-------0---0-------1---1-------1---1----|
G |------0---0-------0---0-------2---2-------2---2----|
D |----2---2---2---2---2---0---3---3---3---3---3---0--|
A |--3-----------3-----------------------3------------|
E |--------------------------1------------------------|

Dsus2 G
| . . . . . | . . . . .
E |------0---0-------0---0----------------------------|
B |------3---3-------3---3-------3---3-------3---3----|
G |----2---2---2---2---2---0-----4---4-------4---4----|
D |--0-----------0-------------5---5---5---5---5---0--|
A |---------------------------------------------------|
E |--------------------------3-----------3------------|

C E/b
| . . . . . | . . . . .
E |------0---0-------0---0-------0---0-------0---0----|
B |------1---1-------1---1-------0---0-------0---0----|
G |----0---0---0---0---0---0---1---1---1---1---1---1--|
D |---------------------------------------------------|
A |--3-----------3-----------2-----------2------------|
E |---------------------------------------------------|

Am G
| . . . . . | . . . . .
E |------0---0-------0---0----------------------------|
B |------1---1-------1---1-------3---3-------3---3----|
G |----2---2---2---2---2---2-----4---4-------4---4----|
D |----------------------------5---5---5---5---5---5--|
A |--0-----------0-----------------------5------------|
E |--------------------------3------------------------|


Outro (La la la...):

Bb
| . . . . . | . . . . .
E |---------------------------------------------------|
B |------3---3-------3---3-------3---3-------3---3----|
G |------3---3-------3---3-------3---3-------3---3----|
D |----3---3---3---3---3---3---3---3---3---3---3---0--|
A |--1-----------------------1------------------------|
E |--------------1-----------------------1------------|

Asus2
| . . . . . | . . . . .
E |---------------------------------------------------|
B |------0---0-------0---0-------0---0-------0---0----|
G |------2---2-------2---2-------2---2-------2---2----|
D |----2---2---2---2---2---2---2---2---2---2---2---0--|
A |--0-----------------------0------------------------|
E |--------------0-----------------------0------------|

Bb
| . . . . . | . . . . .
E |---------------------------------------------------|
B |------3---3-------3---3-------3---3-------3---3----|
G |------3---3-------3---3-------3---3-------3---3----|
D |----3---3---3---3---3---3---3---3---3---3---3---0--|
A |--1-----------------------1------------------------|
E |--------------1-----------------------1------------|

Asus2
| . . . . . | . . . . .
E |---------------------------------------------------|
B |------0---0-------0---0-------0---0-------0---0----|
G |------2---2-------2---2-------2---2-------2---2----|
D |----2---2---2---2---2---2---2---2---2---2---2---0--|
A |--0-----------------------0------------------------|
E |--------------0-----------------------0------------|

Cmaj7
| . . . . . | . . . . .
E |---------------------------------------------------|
B |------0---0-------0---0-------0---0-------0---0----|
G |------0---0-------0---0-------0---0-------0---0----|
D |----2---2---2---2---2---2---2---2---2---2---2---0--|
A |--3-----------3-----------3-----------3------------|
E |---------------------------------------------------|

F
| . . . . . | . . . . .
E |---------------------------------------------------|
B |------1---1-------1---1-------1---1-------1---1----|
G |------2---2-------2---2-------2---2-------2---2----|
D |----3---3---3---3---3---3---3---3---3---3---3---0--|
A |--------------3-----------------------3------------|
E |--1-----------------------1------------------------|

Dsus2
| . . . . . | . . . . .
E |------0---0-------0---0-------0---0-------0---0----|
B |------3---3-------3---3-------3---3-------3---3----|
G |----2---2---2---2---2---2---2---2---2---2---2---0--|
D |--0-----------0-----------0-----------0------------|
A |---------------------------------------------------|
E |---------------------------------------------------|

G
| . . . . . | . . . . .
E |---------------------------------------------------|
B |------3---3-------3---3-------3---3-------3---3----|
G |------4---4-------4---4-------4---4-------4---4----|
D |----5---5---5---5---5---5---5---5---5---5---5---5--|
A |---------------------------------------------------|
E |--3-----------3-----------3-----------3------------|
Добавить новый гитарный бой
Дата: 11-11-2016, 12:41, Добавил: Aurondel, Раздел: Красивые мелодии
Информация
Посетители, находящиеся в группе Гости, не могут оставлять комментарии к данной публикации.



Популярные песни
  • Титаник
  • Пираты карибского моря
  • Все бабы суки бабы бляди
  • Над старым аулом
  • Ламбада
  • Солдат (из к/ф Мы из будущего)
  • За Родину
  • Мальчишка-наркоман
  • Девочка не надо слезы лить напрасно
  • Орленок - Звезды


  • Облако тегов
    , 8 марта, Ария, Армия, би-2, блядь, Валерий Скутин, Война, Грусть, Дворовые, ддт, Звери, Измена, Иностранные, интересное, Кино, КиШ, Красиво, Кузя, лагерное, лагерные песни, лагерь, Лирика, Любовь, Любэ, ляпис трубецкой, Многоточие, Наутилус Помпилиус, о жизни, песня, под гитару, Приколы, Разное, Расставание, Сектор газа, Слезы, Сплин, У костра, Чиж и Ко, Школа

    Показать все теги